Oops, an error
Loading. Please wait.

21St Century Bass Tab

version 4
version 4
284 views 1 this week
no commentswrite comment
1 2 3 4 5
3 more votes to show rating
add to favorites
launch autoscroll
font size
0
reset
guitar tuner
Autoscroll
slow
fast
+/-
esc
set tempo
stop
Help us to improve Ultimate-Guitar.com Take our survey!
×
Author
Difficulty
intermediate
    Song:    21st Century
    Band:    Red Hot Chili Peppers
    Album:   Stadium Arcadium: Mars
    Tuning:  G D A E


   Intro & Verse 1:
    4/4                                                  |1.3.                
     e e e e e e sse   e e e e e e sse   e e e e e e sse | e e sse e e sse    
 ||--.-.-.-.-.-.---.-|---------------.-|---------------.-|------------------||   
 ||*-0-0-0-0-0-0-320-|-.-.-.-.-.-.-320-|-.-.-.-.-.-.-320-|-----32.-.-.-32.-*|| 
 ||*-----------------|-1-1-1-1-1-1-----|-0-0-0-0-0-0-----|-.-.---3-3-3---3-*||  
 ||------------------|-----------------|-----------------|-3-3--------------|| 


 |2.                 |4.                 |5.                 |6.
 | e e sse sssssse   | e e sse e e sse   | e e sse e sssse   | e e sse e sssse 
 |---------32-2--.--||---------------.--||------------------||---------------.-|  
 |-----32.---5-535-*||-----32.-.-.-325-*||-----32.-.-3232.-*||-----32.-.-32325-| 
 |-.-.---3---------*||-.-.---3-3-3-----*||-.-.---3-3-----3-*||-.-.---3-3-------| 
 |-3-3--------------||-3-3--------------||-3-3--------------||-3-3-------------| 


   Chorus 1:         |1.2.3.             |4.
     sssse sssssse.  | sssse sssssssse   | sssse sssse q     sssse sssse q
 ||---------------.--|------------------||-----.-----.-.---|-----.-----------| 
 ||*-----.-57888888--|-----.--5777775--*||-55555-55555-5---|-55555-----.-.---|
 ||*-55555-----------|-88888-8-------8-*||-----------------|-------11111-1---| 
 ||------------------|------------------||-----------------|-----------------|


   Post-Chorus:                                                
   e e e e e e sse   e e e e e e sse   e e e e e e sse | e e sse e e sse    
 |-.-.-.-.-.-.---.-|---------------.-|---------------.-|-----------5---.-|   
 |-0-0-0-0-0-0-320-|-.-.-.-.-.-.-320-|-.-.-.-.-.-.-320-|-----32./7---753-| 
 |-----------------|-1-1-1-1-1-1-----|-0-0-0-0-0-0-----|-.-.---3---------|  
 |-----------------|-----------------|-----------------|-3-3-------------| 


   Verse 2:                                              |1.
     e e e e e e sse   e e e e e e sse   e e e e e e sse | e e sse e e sse    
 ||--.-.-.-.-.-.---.-|---------------.-|---------------.-|------------------||   
 ||*-0-0-0-0-0-0-320-|-.-.-.-.-.-.-320-|-.-.-.-.-.-.-320-|-----32.-.-.-32.-*|| 
 ||*-----------------|-1-1-1-1-1-1-----|-0-0-0-0-0-0-----|-.-.---3-3-3---3-*||  
 ||------------------|-----------------|-----------------|-3-3--------------|| 


 |2.                 |3.                 |4.
 | e e sse e e sse   | e e sse e sssse   | e e sse e sssse 
 |---------------.--||------------------||---------------.-|  
 |-----32.-.-32325-*||-----32.-.-3232.-*||-----32.-.-32325-| 
 |-.-.---3-3-------*||-.-.---3-3-----3-*||-.-.---3-3-------| 
 |-3-3--------------||-3-3--------------||-3-3-------------| 
 

   Chorus 2:         |1.2.3.             |4.
     sssse sssssse.  | sssse sssssssse   | sssse sssse q     sssse sssse q
 ||---------------.--|------------------||-----.-----.-.---|-----.-----------| 
 ||*-----.-57888888--|-----.--5777775--*||-55555-55555-5---|-55555-------.---|
 ||*-55555-----------|-88888-8-------8-*||-----------------|-------11111-1---| 
 ||------------------|------------------||-----------------|-----------------|


  Interlude: 
      e  e  e  e e  e  e e    e  e  e  e e  e  e e    e  e  e  e e  e  e e    e  e  e  e e  e  e e    
 ||----------------17-17---|---------------19-17---|---------------17-17---|-------17---------------|| 
 ||*-19-19-19-19-----------|-19-19-19-19-----------|-19-19-17-19-----------|-19-19----19---17-17---*||
 ||*-------------r-------r-|-------------r-------r-|-------------r-------r-|-------------r-------r-*|| 
 ||------------------------|-----------------------|-----------------------|------------------------||


    e  e  e  e e  e  e e    e  e  e  e e  e  e e    e  e  e  e e  e  e e    e  e  e  e  e  e  q
 |---------------17-17---|---------------19-17---|---------------17-17---|-------17----17----------| 
 |-19-19-19-19-----------|-19-19-19-19-----------|-19-19-17-19-----------|-19-19----19----19-17\---|
 |-------------r-------r-|-------------r-------r-|-------------r-------r-|-------------------------| 
 |-----------------------|-----------------------|-----------------------|-------------------------|


   Bridge:                                               |1.                 |2.     
     e e e e e e sse   e e e e e e sse   e e e e e e sse | e e sse e e sse   | e e sse e sssse  
 ||--.-.-.-.-.-.---.-|---------------.-|---------------.-|-----------5------||---------------.-|   
 ||*-0-0-0-0-0-0-320-|-.-.-.-.-.-.-320-|-.-.-.-.-.-.-320-|-----32./7---753-*||-----32.-.-32325-| 
 ||*-----------------|-1-1-1-1-1-1-----|-0-0-0-0-0-0-----|-.-.---3---------*||-.-.---3-3-------|  
 ||------------------|-----------------|-----------------|-3-3--------------||-3-3-------------| 

 
  Verse 3:
   e e e e e e sse   e e e e e e sse   e e e e e e sse   e e sse e e q    
 |-.-.-.-.-.-.---.-|---3---3---3---.-|---2---2---2---.-|-----------5-----|   
 |-0-0-0-0-0-0-320-|-.---.---.---320-|-.---.---.---320-|---5---5-.-------| 
 |-----------------|-1---1---1-------|-0---0---0-------|-.---.---3---4---|  
 |-----------------|-----------------|-----------------|-3---3-----------| 


   e e e e e e sse   e e e e e e sse   e e e e e e sse   e e sse e e sse    
 |-.-.-.-.-.-.---.-|---------------.-|---------------.-|-----------------|   
 |-0-0-0-0-0-0-320-|-.-.-.-.-.-.-320-|-.-.-.-.-.-.-320-|-----32.-.-32325-| 
 |-----------------|-1-1-1-1-1-1-----|-0-0-0-0-0-0-----|-.-.---3-3-------|  
 |-----------------|-----------------|-----------------|-3-3-------------| 


   Chorus 2:         |1.2.3.5.6.7.       |4.                      |8.
     sssse sssssse.  | sssse sssssssse   | sssse  s s s s e  q    | sssse  s s s s e  e e
 ||---------------.--|------------------||-----------------------||-----------------------|
 ||*-----.-57888888--|-----.--5777775--*||-------1010101010-10\-*||-------1010101010-10---|
 ||*-55555-----------|-88888-8-------8-*||-88888----------------*||-88888---------------r-| 
 ||------------------|------------------||-----------------------||-----------------------|

 
   Outro:            |1.                 |2.                 |3.                 |4.
     sssse sssssse.  | sssse sssssssse   | sssse ssse e se   | sssse ssse e se   | e. e. e e. e. e
 ||---------------.--|------------------||---------7--7-5.--||------------------||-----------------| 
 ||*-----.-57888888--|-----.--5777775--*||-----.-57-7----7-*||-----.--577-5--.-*||-----------------| 
 ||*-55555-----------|-88888-8-------8-*||-88888-----------*||-88888-8------85-*||-8--8--8----8--7-| 
 ||------------------|------------------||------------------||------------------||---------6-------|


                     |1.                 |2.                 |3.
     e se sssse e se | e se sssse e se   | e se ssse. e se   | e se sssse e se 
 ||------------------|------------------||------------------||------------5-75--|| 
 ||*-------5788-8-75-|--------577-7-5--*||-----------------*||--------577------*||
 ||*-5-55-5----------|-8-88-08-------8-*||-8-88-08-0--8-07-*||-8-88-08---------*|| 
 ||------------------|------------------||--------0---------||------------------||


 |4.
 | e se se e e q     w                w               h      h         w
 |-----------------|----------------|---------------|----------------|---------------||
 |-------5-7-5-----|----------------|---------------|----------------|---------------||
 |-8-88-5------8---|-5--------------|-L-------------|-L-----17\------|-r-------------|| 
 |-----------------|----------------|---------------|----------------|---------------||



 TAB LEGEND:
 
 bpm: tempo    4/4: Time signature   ||* & *||: Repeat Open & Close   |1.2.: endings 

 / : slide up      \ : slide down      h : hammer-on      p : pull-off
 L : tie note      ~ : vibrato         r : rest           x : dead note
 . : staccato      T : tapping         S : slap           P : pop     
 = : let ring      + : harmonic       ah : artificial harmonic      

 w: whole note     h: half note        q: quarter note    s: sixteen note    
 t: 32nd note      --3--: triplet      w. h. q. etc: dotted note




Suggest correction
Give kudos to tab author, rate the tab!
1 2 3 4 5
comments
print report bad tab
guest
You may want to rate the tab now too:
select rating
Wanna post a correction for this tab? Suggest correction