Oops, an error
Loading. Please wait.

Aeroplane Bass Tab

version 4
version 4

Whole song

76 views 9 this week
no commentswrite comment
1 2 3 4 5
3 more votes to show rating
add to favorites
launch autoscroll
font size
0
reset
guitar tuner
Autoscroll
slow
fast
+/-
esc
set tempo
stop
Help us to improve Ultimate-Guitar.com Take our survey!
×
Author
Difficulty
Tabbers playing skills
intermediate
beginner ++
About this tab version
Other tabs are incomplete (ishing the verse, saying "improvise") and often inaccurate. This is 100% correct. Was this info helpful? Yes No
INTRO
G|----17------17/19-|-\17----------------|------------------|-------------|
D|------------------|----17--------------|-17---------------|-------------|
A|-/15--------------|------15------15h17-|--------15--------|-------------|
E|------------------|--------------------|-----------15\----|-8------8/15-|

G|---------------------|-17-------21--19---17-|-17----------|-------------|
D|---------------17h19-|-------17---17---17---|----------17-|-------------|
A|-15h17p15------------|----------------------|-------------|-15h17p15----|
E|---------------------|----------------------|-------------|-------------|


FIRST CHORUS
G|-------------------------------------------------------------------------|
D|-------------------------------------------------------------------------|
A|-/10~~-0-1-/3~~------/10~~-0-1-3-3h5-5/6-6/8-8/10~~-0-1-/3~~-------------|
E|----------------0-1-------------------------------------------0-1--------|

G|------------------------------------------------------------------------------|
D|------------------------------------3-3h5-3---------------------------------5-|
A|---0-1-3/5-3----------0-1-3-3/5-3-5---------5----0-1-3-3/5-3-5-6--6h8-6h8-6---|
E|-3-----------0-1----3--------------------------3------------------------------|

FIRST VERSE
G|-------------7-7------5-5-------------------------7-7------5-5--------5---|
D|----5-5------------------------3-5-5-----5-5------------------------5-----|
A|------------5-x--4-3-x-x--5-6--------------------5-x--4-3-x-x--5h6-x-x----|
E|-3-x-x--5-6-------------------x-x-x---3-x-x--5-6--------------------------|
   S SPSP S S SPSP S S SPSP S S SPSPSP  S SPSP S S SPSP S S SPSP S   SPSP

G|-------------7-7------5-----------------------------7-7------5-5-----8---7-|
D|----5-5-----------------------5-3----------5-5-----------------------------|
A|------------5-x--4-3-x-x-5h7-x----3p1p0------------5-x--4-3-x-x--5-6---5---|
E|-3-x-x--5-6-----------------------------3-x-x--5-6-------------------------|
   S SPSP S S SPSP S S SPS S   SP P S     S SPSP S S SPSP S S SPSP S S P S P

G|-------------7-7------5-5-------------------------7-7------5-x-------------|
D|----5-5------------------------3-5-5-----5-5-------------------------------|
A|------------5-x--4-3-x-x--5-6--------------------5-x--4-3-x-x------3-3-1h3-|
E|-3-x-x--5-6-------------------x-x-x---3-x-x--5-6--------------1h3-x-x-x----|
   S SPSP S S SPSP S S SPSP S S SPSPSP  S SPSP S S SPSP S S SPSPS   SPSPSP

G|-------------3-3------5-5-------------------------7-7------5-5----------|
D|----5-5------------------------3-5-5-----5-5----------------------------|
A|--------0-1-1-x--2-3-x-x--5-6--------------------5-x--4-3-x-x--5-6-7/8--|
E|-3-x-x------------------------x-x-x---3-x-x--5-6------------------------|
   S SPSP S S SPSP S S SPSP S S SPSPSP  S SPSP S S SPSP S S SPSP S S S

SECOND CHORUS
G|-----------------------------------------------------------------------|
D|-------------------------------------0h1--1/15-------------------------|
A|-/10~~-0-1-/3~~------/10~~-0-1-3-3h5-----------10~~-0-1-/3~~-----------|
E|----------------0-1-----------------------------------------0-1--------|

G|------------------------------------------------------------------------------|
D|----------10/12-10------------------------3-3h5-3-------7-8-10-10/12-10-12-13-|
A|-10-12-13-------------------0-1-3-3/5-3-5---------5-/10-----------------------|
E|--------------------0-1---3---------------------------------------------------|

G|-10h12-12-12-12-12-12-12--|
D|--------------------------|
A|--------------------------|
E|--------------------------|


SECOND VERSE
G|-------------7-7------5-5-------------------------7-7------5----------|
D|----5-5------------------------3-5-5-----5-5--------------------------|
A|------------5-x--4-3-x-x--5-6--------------------5-x--4-3-x--3-3------|
E|-3-x-x--5-6-------------------x-x-x---3-x-x--5-6------------x-x-0h1p0-|
   S SPSP S S SPSP S S SPSP S S SPSPSP  S SPSP S S SPSP S S SPSPSPS

G|-------------7-7------5-5----------5--------------7-7------5-x----10-10\--0-|
D|----5-5-------------------------3--------5-5--------------------------------|
A|------------5-x--4-3-x-x--5-6--------------------5-x--4-3-x-x-5--8--x-------|
E|-3-x-x--5-6--------------------x--x---3-x-x--5-6----------------------------|
   S SPSP S S SPSP S S SPSP S S  SP SP  S SPSP S S SPSP S S SPSPS  SP SP    P

G|-------------7-7------5-5-------------------------7-7------5------3b----|
D|----5-5------------------------3-5-5-----5-5-------------------3b----3--|
A|------------5-x--4-3-x-x--5-6--------------------5-x--4-3-x-x-----------|
E|-3-x-x--5-6-------------------x-x-x---3-x-x--5-6------------------------|
   S SPSP S S SPSP S S SPSP S S SPSPSP  S SPSP S S SPSP S S SPSP P  P  P

G|-------------3-3------5-5------3-5-7--------------3-3------5-5-----------|
D|----5-5----------------------5-----------5-5-----------------------------|
A|--------0-1-1-x--2-3-x-x-5h6--x-x-x----------0-1-1-x--2-3-x-x--5-6/7-8---|
E|-3-x-x--------------------------------3-x-x------------------------------|
   S SPSP S S SPSP S S SPSPS   PSPSPSP  S SPSP S S SPSP S S SPSP S S   S

THIRD CHORUS
G|-----------------------------------------------------------------------|
D|-------------------------------------------13-12-10--------------------|
A|/10~~-0-1-/3~~-----/10~~-0-1--3~~/10-13-10---------/10~~-0-1-/3~~------|
E|---------------0-1------------------------------------------------0-1--|

           
G|--------------------|
D|--------------------|
A|---0-1-3/5-3--------|
E|-3------------0-1---|

BRIDGE
G|--------------------------------------------|
D|--------------------------------------------|
A|--6-6---8-8---10-10---X6-6---8-8---10-10----|
E|--------------------------------------------|

G|----------10----------10----12-0-12-10------|
D|-------------------12----12-------------12--|
A|--6-6---8----10-----------------------------|
E|--------------------------------------------|

G|-------8----10----------10----X-10----12-10----|
D|---------------------12------------12-------12-|
A|--6-6----8-----10------------------------------|
E|-----------------------------------------------|

G|---------------------10----12--15-----------------------------------------|
D|----------10------12----12--------15-12-----------------------------------|
A|-6-6---8-----10---------------------------6-6--8-8--10--10--10------------|
E|--------------------------------------------------------------------------|

FOURTH CHORUS
G|--------------------------------------------------------------------|
D|--------------------------------------------------------------------|
A|-/10~~-0-1-/3~~-----/10~~-0-1-3-/10~~\/13~~\/18~~~~-/10-0-1-/3~-----|
E|----------------0-1---------------------------------------------0-1-|

G|--------------------|
D|--------------------|
A|---0-1-3/5-3--------|
E|-3------------0-1---|

SOLO
G|-----0--3-4--------------------------------------------------------------------------------------|
D|-------------3--0-5-3----------------------------------------------------------------------------|
A|----------------------5-3-----1---3-1-----------------------------------3--3-3-3-1-1---3-0-5-0-6-|
E|--3-------------------------3---3-----3--1--0--2---3-3-3-3-1-1---3/15\---------------------------|

G|----------3--------------------------------3h4----------------5-----------|
D|----5--3-----------------------------0-5-0-----5-0-3----------------------|
A|-------------4-3--1-1-3-1------------------------------0-4-1/3----5/17\---|
E|--3-----------------------3--1-0-2--3-------------------------------------|

OUTRO
G|---------------------------------------------4-4-5-5-7-7-8-8-10-10-|
D|------------------------------3-3-5-5-7-7-8-8----------------------|
A|----------1-1-2-2-3-3-5-5-6-6--------------------------------------|
E|--3-3-0-0----------------------------------------------------------|

G|-10h12-12-10-10-----------------------------------------------------------------------|
D|----------------13-13-12-12-10-10-----------------------------------------------------|
A|----------------------------------13-13-12-12-11-11-10-10-8-8-6-6-5-5-3-3-------------|
E|--------------------------------------------------------------------------6-6-5-5-4-4-|

G|---------------------------------------------4-4-5-5-7-7-8-8-10-10-|
D|------------------------------3-3-5-5-7-7-8-8----------------------|
A|----------1-1-2-2-3-3-5-5-6-6--------------------------------------|
E|--3-3-0-0----------------------------------------------------------|

G|-10h12--12-10--10---------------------------------------------------------------------------------|
D|-----------------13--13-12--12-13p12p10-12p10---10------------------------------------------------|
A|----------------------------------------------13-13p12-13p12p11-10-10-8-8-6-6-5-5-3-3-------------|
E|--------------------------------------------------------------------------------------6-6-5-5-4-4-|

G|----------|
D|----------|
A|----------|
E|-3/15-----|


LEGEND:
/ = slide
p = pull off
h = hammer on
S = slap (use your right hand thumb)
P = pop (use your right hand index finger)
Suggest correction
Give kudos to tab author, rate the tab!
1 2 3 4 5
comments
print report bad tab
guest
You may want to rate the tab now too:
select rating
Wanna post a correction for this tab? Suggest correction