Oops, an error
Loading. Please wait.

Annie Wants A Baby Bass Tab

version 3
version 3

Whole song

Interactive

4,187 views 1 this week
no commentswrite comment
1 2 3 4 5
please rate
add to favorites
launch autoscroll
font size
0
reset
guitar tuner
Autoscroll
slow
fast
+/-
esc
set tempo
stop
Help us to improve Ultimate-Guitar.com Take our survey!
×
Author
Difficulty
intermediate
This is my first tab so be brutal

Artist:Red Hot Chili Peppers
Song:Annie wants a baby
Album:I'm With You(2011)

Also flea uses a pick in this song

Intro/Verse

|--------777-----------------------|
|-----------------------888--------|
|---555-------587--------------78--|
|-------------------666------6-----|repeat as many times as needed


Bridge                   1st ending          2nd ending
|-----------------------|------------------|-----------------|
|---55555555------------|------------------|-----------------|
|-------------88888888--|-6666666666666666-|-5555555555555555|
|-----------------------|------------------|-----------------|


Chorus (part 1)
|---7777777-------------------6666--5555--|
|-----------5555555---8888888-------------|
|-----------------------------------------|
|-----------------------------------------|x2


(part2)
|-------------------------------------------|                            |-----|
|-------------------------------------------|                            |-----|
|--55555---------666666666--999999-8888888--|                            |-1---|
|----------33333----------------------------|x2( 4 times in 2nd chorus)  |-----| < end on



Verse 2 same as verse 1 only this is in it after Anthony finishes singing the first time 
(you'll no what i mean after listening)

|-----555------------------|
|-----------------888------|
|-333-----65-----------78--|
|-------------666----6-----|


End

|---------------------------|
|--55555555-----------------|
|-----------8888888-6-------|
|---------------------------|


You should have everything there. Listen to the song to get the timing off.
Suggest correction
Give kudos to tab author, rate the tab!
1 2 3 4 5
comments
print report bad tab
guest
You may want to rate the tab now too:
select rating
Please do not post tabs as comments. Select "correction" instead!