Oops, an error
Loading. Please wait.

Annie Wants A Baby tab

version 5
version 5

Whole song

Interactive

130 views 3 this week
no commentswrite comment
1 2 3 4 5
3 more votes to show rating
add to favorites
×
Save as Personal and add changes to this tab that will be seen only by you. Learn more ›
×
You can save this tab as Personal to edit and correct it or add notes. All changes will be seen only by you. Learn more »
launch autoscroll
font size
0
reset
how to read this tab
guitar tuner
backing track
0:00
0:00
edit
Autoscroll
slow
fast
+/-
esc
set tempo
stop
Author
Difficulty
About this tab version
This version improves on previous tab, while also simplifying some of the more complex ones, while still being fully tabbed including the guitar solo. Has the whole song written out, so you don't have to read back and forwards or match up times. It's largely based on burnquist1's cover at https://www.youtube.com/watch?v=Y77QxyIeJfs. Was this info helpful? Yes No
Annie Wants a Baby – Red Hot Chili Peppers


(Bass Intro)


[Verse]

e|------------------------------|------------------------------|
B|------------------------------|------------------------------|
G|--10~-----12b14---------------|--10~----12b14----------------|
D|-----------------12~----------|-----------------12~----------|
A|---------------------10h12-12-|------------------------------|
E|------------------------------|------------------------------|

e|---------------------------|---------------------------------|
B|---------------------------|---------------------------------|
G|---------------------------|---------------------------------|
D|--------------10-----------|---------------------------------|
A|--10h12-10-12----12-10-8~--|--10h12-10-12----12-10-8-10-8~---|
E|---------------------------|---------------------------------|

e|------------------------------|------------------------------|
B|------------------------------|------------------------------|
G|--10~-----12b14---------------|--10~----12b14----------------|
D|-----------------12~----------|-----------------12~----------|
A|---------------------10h12-12-|------------------------------|
E|------------------------------|------------------------------|

e|--------------------------------|--------------------------------|
B|--------------------------------|--------------------------------|
G|--------------------------------|--------------------------------|
D|--------------10----------------|--------------------------------|
A|--10h12-10-12----12-10-8/10/8~--|--10h12-10-12----12-10-8b10r8~--|
E|--------------------------------|--------------------------------|


[Pre-Chorus]

e|--------10-------10-----10--------------13-------13----13-----|
B|-----11-------11--------------------10-------10---------------|
G|--12-------12--------12----------12-------12--------12--------|
D|--------------------------------------------------------------|
A|--------------------------------------------------------------|
E|--------------------------------------------------------------|

e|--------10-------10-----10--------------10-------10----10-----|
B|-----11-------11--------------------11-------11---------------|
G|--12-------12--------12----------12-------12--------12--------|
D|--------------------------------------------------------------|
A|--------------------------------------------------------------|
E|--------------------------------------------------------------|

e|--------10-------10-----10--------------13-------13----13------------------|
B|-----11-------11--------------------10-------10----------------------------|
G|--12-------12--------12----------12-------12--------12---------------------|
D|---------------------------------------------------------------------------|
A|---------------------------------------------------------------------------|
E|---------------------------------------------------------------------------|

e|--------------------------------------|
B|--8-8-8-8-8-8-8-8-7-7-7-7-7-7-7-7-----|
G|--7-7-7-7-7-7-7-7-7-7-7-7-7-7-7-7-----|
D|--------------------------------------|
A|--------------------------------------|
E|--------------------------------------|

 
[Chorus]

     Dm              Gm             D#         F#        F
e|------5-------5---------5-------|----------------------------------|
B|----6---6---6---------8---8-----|-------8-------------7-------6----|
G|--7-------7---------7-------7---|-----8---8-----8------------------|
D|------------------5-----------5-|---8-------8-------8---8---7------|
A|--------------------------------|-6-----------8---9-------8--------|
E|--------------------------------|----------------------------------|

     Dm               Gm             D#         F#        F
e|-------------------------5-------|---------------------------------|
B|------6-8b10r8-6-8-----8---8-----|-------8-------------7-------6---|
G|----7--------------5h7-------7---|-----8---8-----8-----------------|
D|--7----------------------------5-|---8-------8-------8---8---7-----|
A|---------------------------------|-6-----------8---9-------8-------|
E|---------------------------------|---------------------------------|

(Chord strumming not shown, but it's not too difficult to figure out)

     Dm      Gm      D#     F#augM7  FaugM7
e|----5-------5-------6-------------------------|
B|----6-------8-------8-------6-------5---------|
G|----7-------7-------8-------7-------6---------|
D|----7-------5-------8-------8-------7---------|
A|----5---------------6-------9-------8---------|
E|----------------------------------------------|

     Dm                       Gm      D#      F#augM7  FaugM7  A#
e|----5------------------------5-------6---------------------------|
B|----6------6-8b10r8-6-8------8-------8-------6-------5-----------|
G|----7----7--------------5h7--7-------8-------7-------6-------3---|
D|----7--7---------------------5-------8-------8-------7-------3---|
A|----5--------------------------------6-------9-------8-------1---|
E|-----------------------------------------------------------------|


[Interlude/Solo]

e|---------------------8-----------------------------------------------|
B|--10---10-6-6---10-----10-6-6\5-5\3----------------------------------|
G|------------------------------------7b9r7b9r7------------5-----------|
D|-----------------------------------------------5/7-7-7-7---7---------|
A|---------------------------------------------------------------------|
E|---------------------------------------------------------------------|


[Verse]

e|------------------------------|----------------------|
B|------------------------------|----------------------|
G|--10~-----12b14---------------|--10~----12b14--------|
D|-----------------12~----------|-----------------12~--|
A|---------------------10h12-12-|----------------------|
E|------------------------------|----------------------|

e|-------------------------------|--------------------------------|
B|-------------------------------|--------------------------------|
G|-------------------------------|--------------------------------|
D|--------------10---------------|--------------10----------------|
A|--10h12-10-12----12-10-8/10-8--|--10h12-10-12----12-10-8b10r8---|
E|-------------------------------|--------------------------------|

e|-------------------13-13-13-13-13-13-13-13-----|
B|-------------------13-13-13-13-13-13-13-13-----|
G|---9~---12b--10----x--x--x--x--x--x--x--x------|
D|-----------------------------------------------|
A|-----------------------------------------------|
E|-----------------------------------------------|

e|------------------------------|----------------------|
B|------------------------------|----------------------|
G|--10~-----12b14---------------|--10~----12b14--------|
D|-----------------12~----------|-----------------12~--|
A|---------------------10h12-12-|----------------------|
E|------------------------------|----------------------|

e|----------------------------------|--------------------------------|
B|----------------------------------|--------------------------------|
G|----------------------------------|--------------------------------|
D|--------------10------------------|--------------------------------|
A|--10h12-10-12----12-10-8~---8-8-8-|-10h12-10-12----12-10-8b10r8~---|
E|----------------------------------|--------------------------------|


[Pre-Chorus]

e|--------10-------10-----10--------------13-------13----13------|
B|-----11-------11--------------------10-------10----------------|
G|--12-------12--------12----------12-------12--------12---------|
D|---------------------------------------------------------------|
A|---------------------------------------------------------------|
E|---------------------------------------------------------------|

e|--------10-------10-----10--------------10-------10----10------|
B|-----11-------11--------------------11-------11----------------|
G|--12-------12--------12----------12-------12--------12---------|
D|---------------------------------------------------------------|
A|---------------------------------------------------------------|
E|---------------------------------------------------------------|

e|--------10-------10-----10--------------13-------13----13------|
B|-----11-------11--------------------10-------10----------------|
G|--12-------12--------12----------12-------12--------12---------|
D|---------------------------------------------------------------|
A|---------------------------------------------------------------|
E|---------------------------------------------------------------|

e|--------------------------------------|
B|--8-8-8-8-8-8-8-8-7-7-7-7-7-7-7-7-----|
G|--7-7-7-7-7-7-7-7-7-7-7-7-7-7-7-7-----|
D|--------------------------------------|
A|--------------------------------------|
E|--------------------------------------|


[Chorus]

     Dm      Gm      D#     F#augM7  FaugM7
e|----5-------5-------6-------------------------|
B|----6-------8-------8-------6-------5---------|
G|----7-------7-------8-------7-------6---------|
D|----7-------5-------8-------8-------7---------|
A|----5---------------6-------9-------8---------|
E|----------------------------------------------|

     Dm                       Gm      D#      F#augM7  FaugM7
e|----5------------------------5-------6----------------------|
B|----6------6-8b10r8-6-8------8-------8-------6-------5------|
G|----7----7--------------5h7--7-------8-------7-------6------|
D|----7--7---------------------5-------8-------8-------7------|
A|----5--------------------------------6-------9-------8------|
E|------------------------------------------------------------|

     Dm      Gm      D#     F#augM7  FaugM7
e|----5-------5-------6-------------------------|
B|----6-------8-------8-------6-------5---------|
G|----7-------7-------8-------7-------6---------|
D|----7-------5-------8-------8-------7---------|
A|----5---------------6-------9-------8---------|
E|----------------------------------------------|

     Dm                       Gm      D#      F#augM7  FaugM7  A#
e|----5------------------------5-------6---------------------------|
B|----6------6-8b10r8-6-8------8-------8-------6-------5-----------|
G|----7----7--------------5h7--7-------8-------7-------6-------3---|
D|----7--7---------------------5-------8-------8-------7-------3---|
A|----5--------------------------------6-------9-------8-------1---|
E|-----------------------------------------------------------------|


[Solo]

e|-------------------------------------------------|--------------------------|
B|-------------------------------------------------|--------------------------|
G|-------------------------------------------------|--------------------------|
D|-------------------------------------------------|---------10---------------|
A|---5--5-5-5-------------------5--5-5-5-7--8/10\8-|-8-7-8/12----12-10-8/10\8-|
E|------------3br-5/6-8\6-6p5----------------------|--------------------------|

e|-----------------------------------|
B|-----------------------------------|
G|-----------------------5-7---7-----|
D|-------------3--3-3-5/7-7--5-------|
A|---5-3-5-3-5---5-5-----------------|
E|-----------------------------------|


[Outro]

e|--------10-------10-----10--------------13-------13----13------------------|
B|-----11-------11--------------------10-------10----------------------------|
G|--12-------12--------12----------12-------12--------12---------------------|
D|---------------------------------------------------------------------------|
A|---------------------------------------------------------------------------|
E|---------------------------------------------------------------------------|

e|--------10---|
B|-----11------|
G|--12---------|
D|-------------|
A|-------------|
E|-------------|


***********************************

| h   hammer on
| p   pull off
| b   bend
| r   release bend
| br  bend and release
| /   slideup
| \   slidedown
| ~   vibrato

***********************************

            
            
Suggest correction
Creating personal tab
Creating personal tab
You can edit any tab online and save it as your Personal.

You can edit, replace or remove any tab part or add personal notes – all changes will be seen only by you.

Personal tabs can be accessed anytime from any device, even offline.
Learn more »
Give kudos to tab author, rate the tab!
1 2 3 4 5
comments
print report bad tab
guest
You may want to rate the tab now too:
select rating
Wanna post a correction for this tab? Suggest correction