Oops, an error
Loading. Please wait.

Apache Rose Peacock Tab

version 3
version 3

Whole song

Interactive

26,635 views 63 this week
no commentswrite comment
1 2 3 4 5
x 8
add to favorites
launch autoscroll
font size
0
reset
how to read this tab
guitar tuner
backing track
0:00
0:00
×
Best way to learn
"Apache Rose Peacock"
Autoscroll
slow
fast
+/-
esc
set tempo
stop
Author
Difficulty
  follow
intermediate
[Intro]
(Medium Funk Q=96)
  Em9
(4/4)
(Gtr 1)
  E. S E E S S S S S S S S   E. S E E S S S S E E   E. S E E S S S S S S S S
e|--------x-----x-x-----7s8-|--------x-------------|--------x-----x-x-----7-x--|
B|--------x-----x-x-----7s9-|--------x-------------|--------x-----x-x-----7-x--|
G|-7--7---x-7-7-x-x-7---7s9-|-7--7---x-7p0-6---7---|-7--7---x-7-7-x-x-7---7-x--|
D|--------------------------|----------------------|---------------------------|
A|--------------------------|----------------------|---------------------------|
E|--------------------------|----------------------|---------------------------|

                                   $
(Gtr 1)
   E. S S S S S  S  S   S  S  E  E
e|--------x-----12-12-(10)---(8)---|
B|--------x-----12-12--10-----8----|
G|-7--7---x-7---12-12--11-----9----|
D|---------------------------------|
A|---------------------------------|
E|---------------------------------|

(Gtr 3)
   W
e|---------------------------------|
B|---------------------------------|
G|---------------------------------|
D|---------------------------------|
A|---------------------------------|
E|---------------------------------|

[Verses 1 & 3]
   Em9
   E.    S E E  S  S S  S S S  S S   E.    S  E E  S S  S S E  E
e|-----------x-------x--x------7s8-|------------x-----------------|
B|-----------x-------x--x------7s9-|------------x-----------------|
G|-7-----7---x--7--7-x--x-7----7s9-|-7-----7----x--7p0--6---7-----|
D|---------------------------------|------------------------------|
A|---------------------------------|------------------------------|
E|---------------------------------|------------------------------|

   E   E   Q    E.      S E    E     E   E    Q    E    E   E  E
e|---------------------------------|------------------------------|
B|----17-------17------17-----15---|----17---17---17---17-----15--|
G|---------------------------------|------------------------------|
D|---------------------------------|------------------------------|
A|---------------------------------|------------------------------|
E|---------------------------------|------------------------------|

   E.    S E E  S  S S  S S S  S S
e|-----------x-------x--x------7-x-|
B|-----------x-------x--x------7-x-|
G|-7-----7---x--7--7-x--x-7----7-x-|
D|---------------------------------|
A|---------------------------------|
E|---------------------------------|

   E   E   Q    E.      S E    E
e|---------------------------------|
B|----17-------17------17-----15---|
G|---------------------------------|
D|---------------------------------|
A|---------------------------------|
E|---------------------------------|

   E.    S  S S S S  S  S   S  S  E   E   E.    S E E  S  S S  S S S  S S
e|------------x-----12-12-(10)---(8)----|-----------x-------x--x------7s8-|
B|------------x-----12-12--10-----8-----|-----------x-------x--x------7s9-|
G|-7-----7----x-7---12-12--11-----9-----|-7-----7---x--7--7-x--x-7----7s9-|
D|--------------------------------------|---------------------------------|
A|--------------------------------------|---------------------------------|
E|--------------------------------------|---------------------------------|

   E   E    Q        E      E     E   E   E   E   Q    E.      S E    E
e|--------------------------------------|---------------------------------|
B|----17---17-------17-----17--------15-|----17-------17------17-----15---|
G|--------------------------------------|---------------------------------|
D|--------------------------------------|---------------------------------|
A|--------------------------------------|---------------------------------|
E|--------------------------------------|---------------------------------|

   E.    S  E E  S S  S S E  E   E.    S E E  S  S S  S S S  S S
e|------------x----------------|-----------x-------x--x------7-x-|
B|------------x----------------|-----------x-------x--x------7-x-|
G|-7-----7----x--7p0--6---7----|-7-----7---x--7--7-x--x-7----7-x-|
D|-----------------------------|---------------------------------|
A|-----------------------------|---------------------------------|
E|-----------------------------|---------------------------------|

   E   E    Q    E    E   E  E   E   E   Q    E.      S E    E
e|-----------------------------|---------------------------------|
B|----17---17---17---17-----15-|----17-------17------17-----15---|
G|-----------------------------|---------------------------------|
D|-----------------------------|---------------------------------|
A|-----------------------------|---------------------------------|
E|-----------------------------|---------------------------------|

   E.    S  S S S S  S  S   S  S  E   E
e|------------x-----12-12-(10)---(8)----|
B|------------x-----12-12--10-----8-----|
G|-7-----7----x-7---12-12--11-----9-----|
D|--------------------------------------|
A|--------------------------------------|
E|--------------------------------------|

   E   E    Q        E      E     E   E
e|--------------------------------------|
B|----17---17-------17-----17--------15-|
G|--------------------------------------|
D|--------------------------------------|
A|--------------------------------------|
E|--------------------------------------|

[Interlude Verses 1 & 3]
                                            1.,2.,3.
     Dm7                                     A7
      S  S S  S E  S S  S  S S  S S S  S S    S  S S  S S S  S S  S  S  S  S S S  S S
e|--13-13---13---13---13-13---13---x-13---|-15-15-x-15---x-15---15-15-15-15---x-15----|
B|o-15-15---15---15---15-15---15---x-15---|-14-14-x-14---x-14---14-14-14-14---x-14---o|
G|--17-17---17---17---17-17---17---x-17---|-14-14-x-14---x-14---14-14-14-14---x-14----|
D|----------------------------------------|-14-14-x-14---x-14---14-14-14-14---x-14----|
A|o---------------------------------------|------------------------------------------o|
E|----------------------------------------|-------------------------------------------|

   A7
    S  S S  S S S  S S  S  S  S  S S S  S S
e|-15-15-x-15---x-15---15-15-15-15---x-14---|
B|-14-14-x-14---x-14---14-14-14-14---x-13---|
G|-14-14-x-14---x-14---14-14-14-14---x-13---|
D|-14-14-x-14---x-14---14-14-14-14---x-13---|
A|------------------------------------------|
E|------------------------------------------|

[Verses 2 & 4]
   A7
(Gtr 1)
    E  E  E  E     S  S S  S S S  S  S
e|-15----15-------15----x-15---x--x-14-|
B|-14----14-------14----x-14---x--x-13-|
G|-14----14-------14----x-14---x--x-13-|
D|-14----14-------14----x-14---x--x-13-|
A|-------------------------------------|
E|-------------------------------------|

(Gtr 4)
    E  E  E  S  S  S  S S  S E    S  S
e|-------------------12---11-----------|
B|----------13-15----------------12----|
G|----12----------------------------11h|
D|-------------------------------------|
A|-------------------------------------|
E|-------------------------------------|

    S  S  E     E     E     S  S  S  S  S S  S  S
e|----15-------15----------15----15----15---15-15-|
B|----14-------14----------14----14----14---14-14-|
G|----14-------14----------14----14----14---14-14-|
D|----14-------14----------14----14----14---14-14-|
A|------------------------------------------------|
E|------------------------------------------------|

    E     S  S  S  S  S  S  S  S  S  S  E    S  S
e|------------------------------------------------|
B|------------------------------------------------|
G|-12----14-13p12-14-------------14-13s12s==11s12-|
D|-------------------14-13h14-15------------------|
A|------------------------------------------------|
E|------------------------------------------------|

    E  E     E     E     S S  S  S  S     S     S  S
e|-15-------15----------15----x-15--------x-----x-14-|
B|-14-------14----------14----x-14--------x-----x-13-|
G|-14-------14----------14----x-14--------x-----x-13-|
D|-14-------14----------14----x-14--------x-----x-13-|
A|---------------------------------------------------|
E|---------------------------------------------------|

    E  S  S  S  S  S  S  e    E     T  T  T  T  S  S
e|-------------------10-12---12----12h14p12p10-------|
B|-------------11-12---------------------------14-12-|
G|----12-13-14---------------------------------------|
D|---------------------------------------------------|
A|---------------------------------------------------|
E|---------------------------------------------------|

    S  S    E     E    E     S S  S S  S S  S  S
e|----15---------15---------15---15---15---15-15--|
B|----14---------14---------14---14---14---14-14--|
G|----14---------14---------14---14---14---14-14--|
D|----14---------14---------14---14---14---14-14--|
A|------------------------------------------------|
E|------------------------------------------------|

   |----3-----|  |---3---|
   E     E    E  E  E    E  q         E    S  S
e|------------------------------------------------|
B|-12--------------------------------------13-14h=|
G|-------14---12-14------12-14--------------------|
D|------------------14----------------------------|
A|------------------------------------------------|
E|------------------------------------------------|

    E     E  E     E     S  S  S  S S  S  S  S
e|-15-------15----------15-----x-15----x--x-14-|
B|-14-------14----------14-----x-14----x--x-13-|
G|-14-------14----------14-----x-14----x--x-13-|
D|-14-------14----------14-----x-14----x--x-13-|
A|---------------------------------------------|
E|---------------------------------------------|

    S  S  e  S  S  S  S  S  S  S  S S  S  S  S
e|----12-13----------12------------------------|
B|-15-------13-14h16----------13s14------17----|
G|----------------------14---------------------|
D|-------------------------14---------14-------|
A|---------------------------------------------|
E|---------------------------------------------|

    S  S E  E     E  S  S   S S  S  S   S  S
e|----15---15-------15-----15---15-----15-15-|
B|----14---14-------14-----14---14-----14-14-|
G|----14---14-------14-----14---14-----14-14-|
D|----14---14-------14-----14---14-----14-14-|
A|-------------------------------------------|
E|-------------------------------------------|

    S  S E  S  E.    S  E.       S  E.
e|-------------------------------------------|
B|-------------------------------------------|
G|-16p12------14\------14\---------14\-------|
D|-------------------------------------------|
A|-------------------------------------------|
E|-------------------------------------------|

    E     E     E     E     S  S  S  S  S  S  S  S
e|-15----------15----------15-----x-15-----x--x-14-|
B|-14----------14----------14-----x-14-----x--x-13-|
G|-14----------14----------14-----x-14-----x--x-13-|
D|-14----------14----------14-----x-14-----x--x-13-|
A|-------------------------------------------------|
E|-------------------------------------------------|

    S  S  S  S  S  S  S  S  S  S  S  S  S  S  S  S
e|-------------------------------------------11-14-|
B|----------------------------------------12-------|
G|-14-14p13-12p11----11-------------11-14----------|
D|----------------------14p13----13----------------|
A|----------------14----------14-------------------|
E|-------------------------------------------------|

     S   S E  E     E  S S  S S  S  E.
e|------15---15-------15---15---15-------|
B|------14---14-------14---14---14-------|
G|------14---14-------14---14---14-------|
D|------14---14-------14---14---14-------|
A|---------------------------------------|
E|---------------------------------------|

   +E     E  S  S  E  E    E    S  S  E
e|-(14)s===7-----------------------------|
B|---------------------------------------|
G|--------------14\---14---14---14-14----|
D|---------------------------------------|
A|---------------------------------------|
E|---------------------------------------|

[Interlude Verses 2 & 4]
     Dm7
      S  S S  S E  S S  S  S S  S S S  S S
e|--13-13---13---13---13-13---13---x-13---|
B|o-15-15---15---15---15-15---15---x-15---|
G|--17-17---17---17---17-17---17---x-17---|
D|----------------------------------------|
A|o---------------------------------------|
E|----------------------------------------|

   A7
    S  S S  S S S  S S  S  S  S  S S S  S S  (3x)
e|-15-15-x-15---x-15---15-15-15-15---x-15----|
B|-14-14-x-14---x-14---14-14-14-14---x-14---o|
G|-14-14-x-14---x-14---14-14-14-14---x-14----|
D|-14-14-x-14---x-14---14-14-14-14---x-14----|
A|------------------------------------------o|
E|-------------------------------------------|

   Dm7                                      A7
    S  S S  S E  S S  S  S S  S S  S  S S    E E Q  H
e|-13-13---13---13---13-13---13---13-13---|-15-----------|
B|-15-15---15---15---15-15---15---15-15---|-14-----------|
G|-17-17---17---17---17-17---17---17-17---|-14-----------|
D|----------------------------------------|-14-----------|
A|----------------------------------------|--------------|
E|----------------------------------------|--------------|

[Bridge] 
(vocal ad lib)
      Em      Cmaj7     D   N.C.(A7)       B7      B7sB74+9     B7sus4+9
   Q  E. S Q  E. S   Q  E S S S S E S E.   S S S S Q  S S S S S E.
e|----7--7----7--7-|---------------------|---------0------------0---|
B|----8--8----8--8-|----7----------------|-0-0-0-0-3--0-0-0-0-0-3---|
G|----9--9----9--9-|----7-----------4s6\-|-2-2-2-2-2--2-2-2-2-2-2---|
D|-----------------|----7-----------5s7\-|-1-1-1-1-2--1-1-1-1-1-2---|
A|-----------------|--------0---0-0------|-2-2-2-2-2--2-2-2-2-2-2---|
E|-----------------|---------------------|--------------------------|

   B7      B7sB74+9     B7sus4+9Em      Cmaj7     CmajN.C.(A7)
   S S S S Q  S S S S S E.   Q  E. S Q  E. S   Q  E S S S S E S E.
e|---------0------------0--|----7--7----7--7-|----------------------|
B|-0-0-0-0-3--0---0-0-0-3--|----8--8----8--8-|----7-----------------|
G|-2-2-2-2-2--2---2-2-2-2--|----9--9----9--9-|----7-----------4s6\--|
D|-1-1-1-1-2--1---1-1-1-2--|-----------------|----7-----------5s7\--|
A|-2-2-2-2-2--0h2-2-2-2-2--|-----------------|--------0---0-0-------|
E|-------------------------|-----------------|----------------------|

                                            D.S.
   B7      B7sB74+9     B7susB79     B7sB74+9 B7sus4+9
   S S S S Q  S S S S S E.   S S S S Q  e e S E S
e|---------0------------0--|---------0--------0---|
B|-0-0-0-0-3--0-0-0-0-0-3--|-0-0-0-0-3--0-0-0-3s5-|
G|-2-2-2-2-2--2-2-2-2-2-2--|-2-2-2-2-2--2-2-2-2---|
D|-1-1-1-1-2--1-1-1-1-1-2--|-1-1-1-1-2--1-1-1-2---|
A|-2-2-2-2-2--2-2-2-2-2-2--|-2-2-2-2-2--2-2-2-2---|
E|-------------------------|----------------------|

[Verse 5]
     A7
      E E  E E  S S S  S S S S  S   S  S E  E E  S S  S S  S S  S  S  (3x)
e|--15---15---15---x-15---x-x-14-|---15---15---15---15---15---15-15--|
B|o-14---14---14---x-14---x-x-13-|---14---14---14---14---14---14-14-o|
G|--14---14---14---x-14---x-x-13-|---14---14---14---14---14---14-14--|
D|--14---14---14---x-14---x-x-13-|---14---14---14---14---14---14-14--|
A|o------------------------------|----------------------------------o|
E|-------------------------------|-----------------------------------|

    E E  E E  S S S  S S S S  S   S  S E  E E  S S  S S  S  S E
e|-15---15---15---x-15---x-x-14-|---15---15---15---15---15-15---|
B|-14---14---14---x-14---x-x-13-|---14---14---14---14---14-14---|
G|-14---14---14---x-14---x-x-13-|---14---14---14---14---14-14---|
D|-14---14---14---x-14---x-x-13-|---14---14---14---14---14-14---|
A|------------------------------|-------------------------------|
E|------------------------------|-------------------------------|

[Interlude]
     Dm7
      S  S S  S E  S S  S  S S  S S S  S S
e|--13-13---13---13---13-13---13---x-13---|
B|o-15-15---15---15---15-15---15---x-15---|
G|--17-17---17---17---17-17---17---x-17---|
D|----------------------------------------|
A|o---------------------------------------|
E|----------------------------------------|

   A7
    S  S S  S S S  S S  S  S  S  S S S  S S  (3x)
e|-15-15-x-15---x-15---15-15-15-15---x-15----|
B|-14-14-x-14---x-14---14-14-14-14---x-14---o|
G|-14-14-x-14---x-14---14-14-14-14---x-14----|
D|-14-14-x-14---x-14---14-14-14-14---x-14----|
A|------------------------------------------o|
E|-------------------------------------------|

   Dm7                                      A7
    S  S S  S E  S S  S  S S  S S  S  S S    E E Q  H
e|-13-13---13---13---13-13---13---13-13---|-15-----------|
B|-15-15---15---15---15-15---15---15-15---|-14-----------|
G|-17-17---17---17---17-17---17---17-17---|-14-----------|
D|----------------------------------------|-14-----------|
A|----------------------------------------|--------------|
E|----------------------------------------|--------------|

[Outro]
   Em
(Gtr 2)
   Q.   E S S E +E  E   Q.   E E Q      E
e|--------------------|-------------------|
B|--------------------|-------------------|
G|--------------------|-------------------|
D|--------------------|-------------------|
A|------------------2-|-------------------|
E|-0----0-0-0-3-(3)---|-0----0-0-5b5.5--3-|

   Q.   E +S  S E +E  E   Q.   E +E  E S E.
e|----------------------|------------------------|
B|----------------------|------------------------|
G|----------------------|------------------------|
D|----------------------|------------------------|
A|--------------------2-|------------------------|
E|-0----0-(0)-0-3-(3)---|-0----0-(0)-5-x-3b3.5---|

   Q.   E +S  S E +E  E   Q.   E +E  Q      E
e|----------------------|---------------------|
B|----------------------|---------------------|
G|----------------------|---------------------|
D|----------------------|---------------------|
A|--------------------2-|---------------------|
E|-0----0-(0)-0-3-(3)---|-0----0-(0)-5b5.5--3-|

   Q.   E +S  S E +E  E   Q.   E E E S E.
e|----------------------|-------------------*|
B|----------------------|-------------------*|
G|----------------------|-------------------*|
D|----------------------|-------------------*|
A|--------------------2-|-------------------*|
E|-0----0-(0)-0-3-(3)---|-0----0-5-5-5-3----*|


************************************

| x    Dead note
| p    Pull-off
| (n)  Ghost note
| h    Hammer-on
| \    Slide down
| b    Bend
| *    Natural harmonic 

************************************
Suggest correction
comments
print report bad tab
guest
You may want to rate the tab now too:
select rating
Wanna post a correction for this tab? Suggest correction