Oops, an error
Loading. Please wait.
We have an official Around The World tab made by UG professional guitarists. Check out the tab »
×

Around The World bass

version 4
version 4

Whole song

205 views 3 this week
no commentswrite comment
1 2 3 4 5
2 more votes to show rating
add to favorites
×
Save as Personal and add changes to this tab that will be seen only by you. Learn more ›
×
You can save this tab as Personal to edit and correct it or add notes. All changes will be seen only by you. Learn more »
launch autoscroll
font size
0
reset
guitar tuner
backing track
0:00
0:00
edit
Autoscroll
slow
fast
+/-
esc
set tempo
stop
About this tab version
Flea uses a distortion pedal for the intro and the interlude.....enjoy. Was this info helpful? Yes No
Around The World - Red Hot Chili Peppers (Bass Tab)
Written by: Anthony Kiedis, Michael "Flea" Balzary, John Frusciante, Chad Smith


[Intro]
    s                                               s           s           s           s
G|------------------------------------------------|------------------------------------------------|
D|------------------------------------------------|------------------------------------------------|
A|------------------------------------------------|------------------------------------------------|
E|--0---------------------------------------------|-0-----------0-----------0-----------0----------|

G|------------------------------------------------|------------------------------------------------|
D|-12h14-14-12h14-14-12h14-14-12h14-12------------|-12h14-14-12h14-14-12h14-14-12------------------|
A|-------------------------------------14-13-12-10|-------------------------------14-13-12-10------|
E|------------------------------------------------|-------------------------------------------12-10|

G|------------------------------------------------|------------------------------------------------|
D|-12h14-14-12h14-14-12h14-14-12h14-12------------|-12h14-14-12h14-14-12h14-14-12------------------|
A|-------------------------------------14-13-12-10|-------------------------------14-13-12-10------|
E|------------------------------------------------|-------------------------------------------12-10|

G|------------------------------------------------|------------------------------------------------|
D|-12h14-14-12h14-14-12h14-14-12h14-12------------|-12h14-14-12h14-14-12h14-14-12------------------|
A|-------------------------------------14-13-12-10|-------------------------------14-13-12-10------|
E|------------------------------------------------|-------------------------------------------12-10|

G|------------------------------------------------|------------------------------------------------|
D|-12h14-14-12h14-14-12h14-14-12h14-12------------|-12h14-14-12h14-14-12h14-14-12------------------|
A|-------------------------------------14-13-12-10|-------------------------------14-13-12-10------|
E|------------------------------------------------|-------------------------------------------12-10|

G|------------------------------------------------|
D|------------------------------------------------|
A|------------------------------------------------|
E|-3---(3)\---------------------------------------|



[1st Verse]
G|----------10-------12-----------------9-----10--|---------10-------12-----------------8--9-------|
D|------------------------------------------------|-------------------------------------------10---|
A|------------------------------------------------|------------------------------------------------|
E|--3-----------------------0-----1---------------|-3-----------------------0-----1----------------|

G|----------10-------12-----------------9-----10--|---------10-------12----------------------------|
D|------------------------------------------------|----------------------------------3--2----------|
A|------------------------------------------------|-------------------------------1--------1--0----|
E|--3-----------------------0-----1---------------|-3-----------------------1--3-------------------|

G|----------10-------12-----------------9-----10--|---------10-------12----------------------------|
D|------------------------------------------------|------------------------------------------------|
A|------------------------------------------------|------------------------------------------------|
E|--3-----------------------0-----1---------------|-3-----------------------8\7/8\7/8---6\5/6\5/6--|

G|----------10-------12-----------------9-----10--|---------10-------12----------------------------|
D|------------------------------------------------|----------------------------------------0--3--5-|
A|------------------------------------------------|----------------------------------1-------------|
E|--3-----------------------0-----1---------------|-3-----------------------1--3-------------------|



[1st Chorus]
G|--------------------------5-----------8---------|-------------------------7-----------------7----|
D|--6---------------------------------------------|-5-----------------5----------------------------|
A|------------------------------------------------|------------------------------------------------|
E|------------------------------------------------|------------------------------------------------|

G|--------------------------------------5---------|------------------------------------------------|
D|--3-----------------------6---------------------|-------------------------5-----------------5----|
A|------------------------------------------------|-3-----------------3----------------------------|
E|------------------------------------------------|------------------------------------------------|

G|--------------------------5-----------8---------|-------------------------7-----------------7----|
D|--6---------------------------------------------|-5-----------------5----------------------------|
A|------------------------------------------------|------------------------------------------------|
E|------------------------------------------------|------------------------------------------------|

G|--------------------------------------5---------|------------------------------------------------|
D|--3-----------------------6---------------------|-------------------------5----------------------|
A|------------------------------------------------|-3-----------------3-----------------5///12\\\--|
E|------------------------------------------------|------------------------------------------------|
                                                    
G|------------------------------------------------|
D|------------------------------------------------|
A|------------------------------------------------|
E|-3----------------------------------------------|


[2nd Verse]
G|----------10-------12-----------------9-----10--|---------10-------12-----------------8--0-------|
D|------------------------------------------------|-------------------------------------------10---|
A|------------------------------------------------|------------------------------------------------|
E|--3-----------------------0-----1---------------|-3-----------------------0-----1----------------|

G|----------10-------12-----------------9-----10--|---------10-------12----------------------------|
D|------------------------------------------------|----------------------------------3--2--3--2--3-|
A|------------------------------------------------|-------------------------------1----------------|
E|--3-----------------------0-----1---------------|-3-----------------------1--3-------------------|

G|----------10-------12-----------------9-----10--|---------10-------12----------------------------|
D|------------------------------------------------|------------------------------------------------|
A|------------------------------------------------|------------------------------------------------|
E|--3-----------------------0-----1---------------|-3-----------------------8\7/8\7/8---6\5/6\5/6--|

G|----------10-------12-----------------9-----10--|---------10-------12----------------------------|
D|------------------------------------------------|----------------------------------------3--3----|
A|------------------------------------------------|-------------------------------1----------------|
E|--3-----------------------0-----1---------------|-3--------------------0--1--3-------------------|


[2nd Chorus]
G|--------------------------5-----------8---------|-------------------------7-----------------7----|
D|--6---------------------------------------------|-5-----------------5----------------------------|
A|------------------------------------------------|------------------------------------------------|
E|------------------------------------------------|------------------------------------------------|

G|--------------------------------------5---------|------------------------------------------------|
D|--3-----------------------6---------------------|-------------------------5-----------------5----|
A|------------------------------------------------|-3-----------------3----------------------------|
E|------------------------------------------------|------------------------------------------------|

G|--------------------------5-----------8---------|-------------------------7-----------------7----|
D|--6---------------------------------------------|-5-----------------5----------------------------|
A|------------------------------------------------|------------------------------------------------|
E|------------------------------------------------|------------------------------------------------|

G|--------------------------------------5---------|------------------------------------------------|
D|--3-----------------------6---------------------|-------------------------5----------/14b--------|
A|------------------------------------------------|-3-----------------3----------------------------|
E|------------------------------------------------|------------------------------------------------|
                                                    

[Interlude]
G|------------------------------------------------|------------------------------------------------|
D|-12h14-14-12h14-14-12h14-14-12h14-12------------|-12h14-14-12h14-14-12h14-14-12------------------|
A|-------------------------------------14-13-12-10|-------------------------------14-13-12-10------|
E|------------------------------------------------|-------------------------------------------12-10|

G|------------------------------------------------|------------------------------------------------|
D|-12h14-14-12h14-14-12h14-14-12h14-12------------|-12h14-14-12h14-14-12h14-14-12------------------|
A|-------------------------------------14-13-12-10|-------------------------------14-13-12-10------|
E|------------------------------------------------|-------------------------------------------12-10|

G|------------------------------------------------|------------------------------------------------|
D|-12h14-14-12h14-14-12h14-14-12h14-12------------|-12h14-14-12h14-14-12h14-14-12------------------|
A|-------------------------------------14-13-12-10|-------------------------------14-13-12-10------|
E|------------------------------------------------|-------------------------------------------12-10|

G|------------------------------------------------|------------------------------------------------|
D|-12h14-14-12h14-14-12h14-14-12h14-12------------|-12h14-14-12h14-14-12h14-14-12------------------|
A|-------------------------------------14-13-12-10|-------------------------------14-13-12-10------|
E|------------------------------------------------|-------------------------------------------12-10|


[Pre-3rd Verse]
G|----------10-------12-----------------9-----10--|---------10-------12-----12-10------------------|
D|------------------------------------------------|-------------------------------12-10~~~~~~~-----|
A|------------------------------------------------|------------------------------------------------|
E|--3-----------------------0-----1---------------|-3----------------------------------------------|
                                                            

[3rd Verse]
G|----------10-------12-----------------9-----10--|---------10-------12-----------------8--9-------|
D|------------------------------------------------|-------------------------------------------10---|
A|------------------------------------------------|------------------------------------------------|
E|--3-----------------------0-----1---------------|-3-----------------------0-----1----------------|

G|----------10-------12-----------------9-----10--|---------10-------12----------------------------|
D|------------------------------------------------|----------------------------------3--2----------|
A|------------------------------------------------|-------------------------------1--------1--0----|
E|--3-----------------------0-----1---------------|-3-----------------------1--3-------------------|

G|----------10-------12-----------------9-----10--|---------10-------12----------------------------|
D|------------------------------------------------|------------------------------------------------|
A|------------------------------------------------|------------------------------------------------|
E|--3-----------------------0-----1---------------|-3-----------------------8\7/8\7/8---6\5/6\5/6--|

G|----------10-------12-----------------9-----10--|------------------------------------------------|
D|------------------------------------------------|-------------------------------------3-----3--5-|
A|------------------------------------------------|-------------------------1--0--3--5-----5-------|
E|--3-----------------------0-----1---------------|-3--------1-----0--1--3-------------------------|
       
                                   
[3rd Chorus]
G|-----------------------------8------------------|-----------------------------------------------|
D|--6--------6--x--6----------------------x--6--x-|-5--------------------------5-----------x--5---|
A|------------------------------------------------|-----------------------------------------------|
E|------------------------------------------------|----------3--x--3------------------------------|

G|------------------------------------------------|-----------------------------------------------|
D|--3--------3--x--3--------------5-----6--5--3---|-----------------------------------------------|
A|------------------------------------------------|-6--------3-----3-----------x--3-------x--3--x-|
E|------------------------------------------------|-----------------------------------------------|

G|------------------------------------------------|-----------------------------------------------|
D|------------------------------------------------|-----------------------------------------------|
A|--------------------------------6-----5--3------|-----------------------------------------------|
E|--4--------4--x--4--------------------------4---|-3--------3--x--3--------------------------3---|

G|------------------------------------------------|-----------------------------------------------|
D|------------------------------------------------|----------------------------------------3--5---|
A|------------------------------------------------|-6--------3-----3--------------5-----6---------|
E|--1-----1-----3-----3-----4-----4-----6-----6---|-----------------------------------------------|


G|------------------------------------------------|-----------------------------------------------|
D|--6--------6--x--6-----------6----------x--6--x-|-5--------------------------5-----------x--5---|
A|------------------------------------------------|-----------------------------------------------|
E|------------------------------------------------|----------3--x--3------------------------------|

G|------------------------------------------------|-----------------------------------------------|
D|--3--------3--x--5-----------3-------------3--x-|-----------------------------------------------|
A|------------------------------------------------|-6--------3-----6--3-----------5-----6--5--3---|
E|------------------------------------------------|-----------------------------------------------|

G|------------------------------------------------|-----------------------------------------------|
D|------------------------------------------------|-----------------------------------------------|
A|-----------------------------6------------------|-----------------------------------------------|
E|--4--------4--x--4----------------------x--4--x-|-3--------3--x--3--------------------------3---|

G|------------------------------------------------|-----------------------------------------------|
D|-----------------3--------------5-----6--5--3---|-----------------------------------------------|
A|------------------------------------------------|-6---------------------------------------------|
E|--1--------1------------------------------------|-----------------------------------------------|


[Outro]
G|------------------------------------------------|-----------------------------------------------|
D|------------------------------------------------|-----------------------------------------------|
A|--5--8--7--5-----5-----5-----5-----5-----0--3--0|-5--8--7--5-----5-----5-----5-----5-----0--3--0|
E|------------------------------------------------|-----------------------------------------------|

G|------------------------------------------------|-----------------------------------------------|
D|------------------------------------------------|-----------------------------------------------|
A|--5--8--7--5-----5-----5-----5-----5-----0--3--0|-5--8--7--5-----5-----5-----5-----5-----0--3--0|
E|------------------------------------------------|-----------------------------------------------|

G|------------------------------------------------|-----------------------------------------------|
D|------------------------------------------------|-----------------------------------------------|
A|--5--8--7--5-----5-----5-----5-----5-----0--3--0|-5--8--7--5-----5-----5-----5-----5-----0--3--0|
E|------------------------------------------------|-----------------------------------------------|

G|------------------------------------------------|-----------------------------------------------|
D|-----5------------------------------------------|-----------------------------------------------|
A|--5-----7--5-----5-----5-----5-----5-----0--3--0|-5--8--7--5-----5-----5-----5-----5-----0--3--0|
E|------------------------------------------------|-----------------------------------------------|

G|------------------------------------------------|-----------------------------------------------|
D|------------------------------------------------|-----------------------------------------------|
A|--5--8--7--5-----5-----5-----5-----5-----0--3--0|-5--8--7--5-----5-----5-----5-----5-----0--3--0|
E|------------------------------------------------|-----------------------------------------------|

G|------------------------------------------------|-----------------------------------------------|
D|------------------------------------------------|-----------------------------------------------|
A|--5--8--7--5-----5-----5-----5-----5-----0--3--0|-5--8--7--5-----5-----5-----5-----5-----0--3--0|
E|------------------------------------------------|-----------------------------------------------|

G|------------------------------------------------|-----------------------------------------------|
D|------------------------------------------------|-----------------------------------------------|
A|--5--8--7--5-----5-----5-----5-----5-----0--3--0|-5--8--7--5-----5-----5-----5-----5-----0--3--0|
E|------------------------------------------------|-----------------------------------------------|

G|------------------------------------------------|-----------------------------------------------|
D|------------------------------------------------|-----------------------------------------------|
A|--5--5--7--5---/10----10----10----10-----0--3--0|-5--8--7--5---/12----12----12----12---(12)\----|
E|------------------------------------------------|-----------------------------------------------|



************************************

| x  Dead note
| h  Hammer-on
| b  Bend
| /  Slide up
| \  Slide down
| ~  Vibrato
| s  Slap
|(5) Hold note

************************************
Suggest correction
Creating personal tab
Creating personal tab
You can edit any tab online and save it as your Personal.

You can edit, replace or remove any tab part or add personal notes – all changes will be seen only by you.

Personal tabs can be accessed anytime from any device, even offline.
Learn more »
Give kudos to tab author, rate the tab!
1 2 3 4 5
comments
print report bad tab
guest
You may want to rate the tab now too:
select rating
Wanna post a correction for this tab? Suggest correction