Oops, an error
Loading. Please wait.

Blood Sugar Sex Magik Tab

version 1
version 1

Whole song

Interactive

37,051 views 33 this week
4 commentsread comments
1 2 3 4 5
x 8
add to favorites
launch autoscroll
font size
0
reset
how to read this tab
guitar tuner
Autoscroll
slow
fast
+/-
esc
set tempo
stop
Help us to improve Ultimate-Guitar.com Take our survey!
×
Red Hot Chili Peppers, BloodSugarSexMagik
Frank Verwijs  l.verwijs@gironet.nl
The Tab already in this argive is wrong; this tab is from the guitartabbook of BSSM;
but beware; many of the tabs in that book are wrong; for emaple Breaking The Girl.
mail me if you want the right tabs of this great LP. Anyway.....

  [Intro]
e|------------------------------------------|
B|------------------------------------------|
G|-9---12-14/16-12/14-7/9---Palm mute-------|
D|-7---10-12/14-10/12-5/7-7-7-7-7-----------|
A|------------------------------------------|
E|------------------------------------------|

e|------------------------------------------|
B|------------------------------------------|
G|-9---11-12/14-11/12-6/7-------------------|
D|-7---9--10/12--9/10-4/5-5-5-5-5-----------|
A|------------------------------------------|
E|------------------------------------------|

[Verse]

A-0-0-0-0-0-0-0-0-0-0-0-0-0-0-0-0-0

with wah, stress 3th 7th, 11th notes etc.

Riff

e|--------------------------------------------|
B|--------------------------------------------|
G|--------------------------7-----------------|
D|-----------------------------9-8-7----------|
A|-----------7---5--7~~~~~~-----------10------|
E|-0---0--0-----------------------------------|

e|--------------------------------------------|
B|--------------------------------------------|
G|--------------------------------------------|
D|--------------------------------------------|
A|-----------7---5--7--~~\---------4---5------|
E|-0---0--0------------------3--5-------------|

substitute:

e|---------------------|
B|---------------------|
G|---------13---11--13-|
D|---------14---12--14-|
A|---------------------|
E|0---0--0-------------|

e|-----------------13---------------------------|
B|-----9--9--9--9--13 trem. -----12-12-12-12-12-|
G|----10-10-10-10--13       -----12-12-12-12-12-|
D|----10-10-10-10----------------12-12-12-12-12-|
A|-----8--8--8--8----------------10-10-10-10-10-|
E|----------------------------------------------|

e|-----------------------------------------------------|
B|-----------------------------------------------------|
G|----------12---------------------12h14-12------------|
D|-14-12-14-----14-12-14---14-12-14---------14-12-14---|
A|-----------------------------------------------------|
E|-----------------------------------------------------|

ending of interlude:

e|---------------------------|
B|---------------------------|
G|------12b(13)--------------| wah-wah!!!!
D|--------------14-12-14-----|
A|---------------------------|
E|---------------------------|



************************************

| /  Slide up
| ~  Vibrato
| h  Hammer-on

************************************
Suggest correction
comments
print report bad tab
4 comments total. Showing first comments.
0 reply
Mattius07071988 195 Feb 18, 2003 12:00 AM

erm...v.good tab- but hav u got the last riff that comes in at like 3:45 or sumwhere around there???

0 reply
samlynch 130 Jun 23, 2005 12:00 AM

no, I ahve tho!!! give me ur email addy n ill mail it to u!!! gud tab tho!!

0 reply
MasterPuppets64 10 Apr 20, 2013 12:24 PM

awesome

guest
You may want to rate the tab now too:
select rating
Wanna post a correction for this tab? Suggest correction