Oops, an error
Loading. Please wait.

Blood Sugar Sex Magik Tab

version 3
version 3

Whole song

Interactive

78,958 views 102 this week
13 commentsread comments
1 2 3 4 5
x 34
add to favorites
×
Save as Personal and add changes to this tab that will be seen only by you. Learn more ›
×
You can save this tab as Personal to edit and correct it or add notes. All changes will be seen only by you. Learn more »
save as personal
new!
launch autoscroll
font size
0
reset
how to read this tab
guitar tuner
backing track
0:00
0:00
Autoscroll
slow
fast
+/-
esc
set tempo
stop
-------------------------------------------------------------------------------
                             BLOOD SUGAR SEX MAGIK - Red Hot Chili Peppers
-------------------------------------------------------------------------------
Tabbed by: Ori
Email: mullet139@hotmail.com

Tuning: Standard

[Intro]

e|---------------------------------------------------------------------------|
B|---------------------------------------------------------------------------|
G|9--12--14/16--12/14--7/9--------11-12/14-11/12--6/7------------------------|
D|7--10--12/14--10/12--5/7-7777---9--10/12-9/10---4/5-5555-------------------| JUST ONCE
A|---------------------------------------------------------------------------|
E|---------------------------------------------------------------------------|

e|---------------------------------------------------------------------------|
B|---------------------------------------------------------------------------|
G|12--14/16--12/14--7/9--------11-12/14-11/12--6/7---------------------------| 
D|10--12/14--10/12--5/7-7777---9--10/12-9/10---4/5-5555----------------------| X3
A|---------------------------------------------------------------------------|
E|---------------------------------------------------------------------------|


[Verse]

e|---------------------------------------------------------------------------|
B|---------------------------------------------------------------------------|
G|---------------------------------------------------------------------------|
D|---------------------------------------------------------------------------|
A-0-0-0-0-0-0-0-0-0-0-0-0-0-0-0-0-0------------------------------------------|
E|---------------------------------------------------------------------------|


(with wah paddle)

RIFF

e|---------------------------------------------------------------------------|
B|---------------------------------------------------------------------------|
G|-------------7b8-5---------------------------------------------------------|
D|-----9--7--9------7-5-------9--7--9----------------------------------------| x4
A|-----7--5--7----------------7--5--7-------4-5------------------------------|
E|0--0-------------------0--0----------0--5----------------------------------|

[Interlude]

e|---------------------------------------------------------------------------|
B|---------888888------------------------------------------------------------|
G|9-9-9-9--777777--11-11-11-11-11--------------------------------------------|
D|7-7-7-7----------9--9--9--9--9---------------------------------------------|
A|---------------------------------------------------------------------------|
E|---------------------------------------------------------------------------|

e|---------------------------------------------------------------------------|
B|---------------------------------------------------------------------------|
G|9--12--14/16--12/14--7/9--------11-12/14-11/12--6/7------------------------|
D|7--10--12/14--10/12--5/7-7777---9--10/12-9/10---4/5-5555-------------------|
A|---------------------------------------------------------------------------|
E|---------------------------------------------------------------------------|

e|---------------------------------------------------------------------------|
B|---------------------------------------------------------------------------|
G|12--14/16--12/14--7/9--------11-12/14-11/12--6/7---------------------------| 
D|10--12/14--10/12--5/7-7777---9--10/12-9/10---4/5-5555----------------------|
A|---------------------------------------------------------------------------|
E|---------------------------------------------------------------------------|

VERSE x1

RIFF x1

SECOND INTERLUDE:

e|---------------------------------------------------------------------------|
B|---------8--------------------8-10-8---------------------------------------|
G|9--7--9----9--7--9----9--7--9--------9--7--9-------------------------------|
D|---------------------------------------------------------------------------| x3
A|---------------------------------------------------------------------------|
E|---------------------------------------------------------------------------|

RIFF x1

SECOND INTERLUDE x1

END:

Play RIFF in the back of solo. 


LYRICS:

Blood sugar sucker fish
In my dish
How many pieces
Do you wish
Step into a heaven
Where I keep it on the soulside
Girl please me
Be my soul bride
Every woman
Has a piece of Aphrodite
Copulate to create
A state of sexual light
Kissing her virginity
My affinity
I mingle with the gods
I mingle with devinity

Blood sugar baby
She's magik
Sex magik sex magik
Blood sugar baby
She's magik
Sex magik sex magik
Blood sugar crazy
She has it
Sex magik sex magik
Blood sugar baby
She's magik
Sex magik sex magik

Glorious euphoria
Is my must
Erotic shock
Is a function of lust
Temporarily blind
Dimensions to discover
In time
Each into the other
Uncontrollable notes
From her snowwhite throat
Fill a space
In which two bodies float
Operatic by voice
A fanatic by choice
Aromatic is the flower
She must be moist

Blood sugar baby
She's magik
Sex magik sex magik
Blood sugar baby
She's magik
Sex magik sex magik
Blood sugar crazy
She has it
Sex magik sex magik
Blood sugar baby
She's magik
Sex magik sex magik

Blood sugar baby
She's magik
Sex magik sex magik
Blood sugar baby
She's magik
Sex magik sex magik
Blood sugar crazy
She has it
Sex magik sex magik
Blood sugar baby
She's magik
Sex magik sex magik

Blood sugar baby
She's magik
Sex magik sex magik
Blood sugar baby
She's magik
Sex magik sex magik
Blood sugar crazy
She has it
Sex magik sex magik
Blood sugar baby
She's magik
Sex magik sex magik



************************************

| /  Slide up
| b  Bend

************************************
Suggest correction
comments
print report bad tab
13 comments total. Showing first comments.
0 reply
Kamahl413 10 Dec 17, 2005 02:23 AM

good tab

0 reply
SG_MANIAC 30 Feb 21, 2006 12:44 PM

its good enough for me

0 reply
Lord Mike 10 Apr 20, 2006 03:25 PM

Thanks!

guest
Wanna post a correction for this tab? Suggest correction