Oops, an error
Loading. Please wait.

Brothers Cup bass

version 1
version 1

Whole song

Interactive

5,112 views 1 this week
2 commentsread comments
1 2 3 4 5
x 8
add to favorites
×
Save as Personal and add changes to this tab that will be seen only by you. Learn more ›
×
You can save this tab as Personal to edit and correct it or add notes. All changes will be seen only by you. Learn more »
launch autoscroll
font size
0
reset
guitar tuner
edit
Autoscroll
slow
fast
+/-
esc
set tempo
stop
Tabbed By : Randy
e-mail: owpapercut13@yahoo.com

Tuning: Drop D


Intro/ Verses
G|-----------------------3-3---------------------------------------------------------|
D|---------------------------5--------------3----5-3-6-5-3---------------------------|
A|5--3-2-3-3-0-5-R-5-3-2---------5-3-2-3-3-0---------------5-------------------------|
D|-----------------------------------------------------------------------------------|


Chorus
G|---------------------------------------------------------------------------|
D|---------------------------------------------------------------------------|
A|5-3-1-------5-3-1-3-3-1---5-3-1-------5-3-1-3-3-1--------------------------|
D|------5-3-5-------------5-------5-3-5--------------------------------------|

Riff 2 (when the little kids start talking after the chorus)
G|---------------------------------------------------------------------------|
D|---------------------------------------------------------------------------|
A|---------------------------------------------------------------------------|
D|0-0000-00------------------------------------------------------------------|

Riff 3
G|---------------------------------------------------------------------------|
D|---------------------------------------------------------------------------|
A|---------------------------------------------------------------------------|
D|0-0000-00 x-3-x-5-0-0000-00-x-3-x-2----------------------------------------|

Then this tranfers into the main riff
G|---------------------------------------------------------------------------|
D|---------------------------------------------------------------------------|
A|0000-0000-/12\-------------------------------------------------------------|
D|---------------------------------------------------------------------------|

Outro
G|---------------------------------------------------------------------------|
D|2--------------------------------------------------------------------------|
A|---------------------------------------------------------------------------|
D|---------------------------------------------------------------------------|

Song Order:
Intro x 1
Verse x 5
Chorus x 1
Verse x 2
Bridge
Verse x 1
Chrous x 1
Riff 2 x 8
Riff 3 x 4
Transfer Part x 1
Verse x 2
Another Bridge Part
Verse x 1
Chorus x 2
Outro and fade


| /  slide up
| \  slide down
| h  hammer-on
| p  pull-off
| ~  vibrato
| +  harmonic
| x  Mute note
===============================================================================

Thank you. If you see any corrections that need to be made, just contact me via email or
at PurgatoryRD13. Peace.
Suggest correction
Creating personal tab
Creating personal tab
You can edit any tab online and save it as your Personal.

You can edit, replace or remove any tab part or add personal notes – all changes will be seen only by you.

Personal tabs can be accessed anytime from any device, even offline.
Learn more »
comments
print report bad tab
2 comments total.
0 reply
samaxx 37 Apr 06, 2011 12:15 PM

G|-----------------------3-3---------------------------------------------------------|
D|---------------------------5--------------3----5-3-6-5-3-0--------------------------|
A|5--3-2-3-3-0-5-R-5-3-2---------5-3-2-3-3-0----------------------------------------|
D|-----------------------------------------------------------------------------------|

0 reply
BASS_COW 10 Jul 30, 2013 10:51 AM

there's no bridge

guest
You may want to rate the tab now too:
select rating
Wanna post a correction for this tab? Suggest correction