Oops, an error
Loading. Please wait.
118,534 views 270 this week
no commentswrite comment
1 2 3 4 5
accurate
x 9
add to favorites
launch autoscroll
font size
0
reset
how to read this tab
guitar tuner
Tab Pro tools
  • play this tab
  • loop segment
  • change instrument
  • show fretboard
  • metronome
×
Best way to learn
"Californication"
Autoscroll
slow
fast
+/-
esc
set tempo
stop
Contributor
Difficulty
intermediate
Live at Slane Castle version

|--------------------------------------------------------------------|
|-10p8-10vvv--10-8-10-8----------------------------------------------|
|-----------------------9-9vvv---9/12--------------------------------|
|--------------------------------------7-5-7vvv----5-7b9r7--5-7-5vvv-|
|------------------------------------------------7-------------------|
|--------------------------------------------------------------------|

|------------------------------------------10/12vvv-12vv-12vv--|
|----------------10/12-8/10v-10v--13-10-13---------------------|
|-7/9v--12-9-12------------------------------------------------|
|--------------------------------------------------------------|
|--------------------------------------------------------------|
|--------------------------------------------------------------|

|-12-10-8-10-8-7-8-7-5-7-5-3-5--5-5vv--12-10-8-10-8-7-8-7-5-7-5-3-5--|
|--------------------------------------------------------------------|
|--------------------------------------------------------------------|
|--------------------------------------------------------------------|
|--------------------------------------------------------------------|
|--------------------------------------------------------------------|

|-12-10-8-10-8-7-8-7-5-7-5-3--5-3---3------------------|
|---------------------------------5---5-3-5-3---3------|
|---------------------------------------------5---5-4vv|
|------------------------------------------------------|
|------------------------------------------------------|
|------------------------------------------------------|

|---------------------------------------------------------------------------|
|---5---5---5---5---5---6---6---8---X---5---5--5---5---5---5---8---6---8---6|
|--5---5---5---5---5---5---5---5---5---5---5--5---5---5---5---5---5---5---5-|
|-7---7---7---7---7---7---7---7---7---7---7--7---7---7---7---7---7---7---7--|
|---------------------------------------------------------------------------|
|---------------------------------------------------------------------------|

|-----------------12---12--12---12---12--|
|-10-8-10v-10/----13---13--13---13---13--|
|---------------14---14-------14---14----|
|----------------------------------------|
|----------------------------------------|
|----------------------------------------|

|-15-----15-----15-----15-----15-----12-----12-----12-----12----12------|
|---13-----13-----13-----13-----13-----13-----13-----13-----13-----13---|
|------14-----14----14-----14-----14-----14-----14-----14-----14-----14-|
|-----------------------------------------------------------------------|
|-----------------------------------------------------------------------|
|-----------------------------------------------------------------------|

|-15-----15-----15-----15-----15------------------------------|
|---13-----13-----13-----13-----13----10-8-10vv-10-13/17v-17v-|
|-----14-----14-----14-----14-----14--------------------------|
|-------------------------------------------------------------|
|-------------------------------------------------------------|
|-------------------------------------------------------------|

|----------------------------------------------|
|-15-13-15-13-12-13-10v-10vv--10-8\6-5-5h6p5vv-|
|----------------------------------------------|
|----------------------------------------------|
|----------------------------------------------|
|----------------------------------------------|

|----------------------------------------------------------------------|
|-5-3---3--------------------------8---8/10----------------------8---8-|
|-----5---5-4-5-4-7/9------7-5-7/9---9------7h8p7--7-7vv-7-5-7/9---9---|
|---------------------7v-7---------------------------------------------|
|----------------------------------------------------------------------|
|----------------------------------------------------------------------|

|------------------------10/12-12v-12-12-12-10-10-10-8-8-10-8-8-8--8-8-0-0-|
|-10/12-8/10-10-13-10-13-----------------------------------------------0-0-|
|--------------------------------------------------------------------------|
|--------------------------------------------------------------------------|
|--------------------------------------------------------------------------|
|--------------------------------------------------------------------------|

|-0-0-10-0-0-8-0-0-7-0-0-5-0-0-0-| -12-0-0-10-0-0-8-0-0-7-0-0-5- |
|--------------------------------| ----------------------------- |
|--------------------------------|O-----------------------------O|
|--------------------------------|O-----------------------------O|
|--------------------------------| ----------------------------- |
|--------------------------------| ----------------------------- |X2

|-15-0-0-12-0-0-15-0-0-12-15-0-17-0-17-0-0-17-0-0-17-0-0-17-0-17b19-|
|-------------------------------------------------------------------|
|-------------------------------------------------------------------|
|-------------------------------------------------------------------|
|-------------------------------------------------------------------|
|-------------------------------------------------------------------|

|-17--17-17-17---17-17-17-17-17-17-17-17-15-12-15-15/17-17-17-17-|
|----------------------------------------------------------------|
|----------------------------------------------------------------|
|----------------------------------------------------------------|
|----------------------------------------------------------------|
|----------------------------------------------------------------|

|-15-13-12-13-12-13-12-10-12-10-8-10-8-7-8-7-5-7-5-3-|
|----------------------------------------------------|
|----------------------------------------------------|
|----------------------------------------------------|
|----------------------------------------------------|
|----------------------------------------------------|

|-12-10-12-10-8-10-8-7-8-7-5-7-5-3-/12-10-12-10-8-10-8-7-8-7-5-7-5-3-5-3-5-|
|--------------------------------------------------------------------------|
|--------------------------------------------------------------------------|
|--------------------------------------------------------------------------|
|--------------------------------------------------------------------------|
|--------------------------------------------------------------------------|

|-/12-10-8-10-8-7-8-7-5-7-5-3-5-3-0-3-5-3-0-3-5vv-|
|-------------------------------------------------|
|-------------------------------------------------|
|-------------------------------------------------|
|-------------------------------------------------|
|-------------------------------------------------|

Please vote & comment
comments
print report bad tab
I want to post or [tab]
guest
You may want to rate the tab now too:
select rating
Please do not post tabs as comments. Select "correction" instead!