Oops, an error
Loading. Please wait.

Californication Live Tab

version 1
version 1

Intro

Interactive

165,647 views 198 this week
23 commentsread comments
1 2 3 4 5
excellent!
x 56
add to favorites
launch autoscroll
font size
0
reset
how to read this tab
guitar tuner
Autoscroll
slow
fast
+/-
esc
set tempo
stop
Help us to improve Ultimate-Guitar.com Take our survey!
×
Artist: Red Hot Chilli Peppers
Song: Californication intro (Live at Slane Castle)


e|-5-3-5--5-3-5-3---------------------------------------------|
B|---------------5-5---5/8----------5------------8-8-10/12-10-|
G|-------------------------------2/5-7-5-7-5--/9--9-----------|
D|-------------------------7-5-7------------------------------|
A|------------------------------------------------------------|
E|------------------------------------------------------------|

e|----8--8-10/12-12--12-12-10--10-------------------|
B|-10--10--------------------13--13-12-10-12-10--10-|
G|---------------------------------------------12---|
D|--------------------------------------------------|
A|--------------------------------------------------|
E|--------------------------------------------------|

e|-12-10--10----------------------12-10--10-------------------------|
B|------13--13-12-13-12-10-12-10-------13--13-12-13-12-10-12-10--10-|
G|------------------------------12-----------------------------12---|
D|------------------------------------------------------------------|
A|------------------------------------------------------------------|
E|------------------------------------------------------------------|

e|-12-10--10------------------------------------------------------------|
B|------13--13-12-13-12-10-12-10--10---10-8-8---------------------------|
G|------------------------------12---------9-9-7-9-7--7-----------------|
D|--------------------------------------------------10-10-9-10----------|
A|----------------------------------------------------------------------|
E|----------------------------------------------------------------------|

e|-----------------------------------------|
B|-----------------------------------------|
G|-----------------------------------------|
D|------14-----14-----14-----14-----14--14-|
A|-12-12--12-12--12-12--12-12--12-12--12---|
E|-----------------------------------------|

e|--------------------------------------------|
B|--------------------------------------------|
G|--------------------------------------------|
D|------15-----17-----15-----17-----15-----17-|
A|-12-12--12-12--12-12--12-12--12-12--12-12---|
E|--------------------------------------------|

e|----------12-12-12-12-12-12-12-12-12-15-15-15-15-15-15-15-15-15-15-|
B|----------13-13-13-13-13-13-13-13-13-13-13-13-13-13-13-13-13-13-13-|
G|-14-12-14-14-14-14-14-14-14-14-14-14-14-14-14-14-14-14-14-14-14-14-|
D|-------------------------------------------------------------------|
A|-------------------------------------------------------------------|
E|-------------------------------------------------------------------|

e|-12-12-12-12-12-12-12-12-12-15-15-15-15-15-15-15-15-15-15-|
B|-13-13-13-13-13-13-13-13-13-13-13-13-13-13-13-13-13-13-13-|
G|-14-14-14-14-14-14-14-14-14-14-14-14-14-14-14-14-14-14-14-|
D|----------------------------------------------------------|
A|----------------------------------------------------------|
E|----------------------------------------------------------|

e|---------------8/12-12-12-8-10-8-7-8-5--5-----------------------------|
B|-10-8-10-10--10--------------------------8-7-5-7-5--5-3-3-------------|
G|-------------------------------------------------------5-5-4-4-5-5/7--|
D|--------------------------------------------------------------------7-|
A|----------------------------------------------------------------------|
E|----------------------------------------------------------------------|


e|-----------------------------------------------------------------------|
B|-----------------------------------------------------------------12-10-|
G|--------------------12-12h14-14-----------------------12-12h14-14------|
D|------------12h14-14-----------14p12p10h12-12-12h14-14-----------------|
A|-12-12-12h14-----------------------------------------------------------|
E|-----------------------------------------------------------------------|


e|---8--8-10/12-12--12-12-12p10-10-10--10-10-8-8--8-8-8p7-0-0-|
B|-10-10------------------------------------------------------|
G|------------------------------------------------------------|
D|------------------------------------------------------------|
A|------------------------------------------------------------|
E|------------------------------------------------------------|


e|-0-0-12-0-0-10-0-0-8-0-0-7-0-0-5-0-0-|     e|-0-0-15-0-0-12-0-0-15-0-0-12-0-0-15-0-17----|
B|-------------------------------------|     B|--------------------------------------------|
G|-------------------------------------|(x3) G|--------------------------------------------|
D|-------------------------------------|     D|--------------------------------------------|
A|-------------------------------------|     A|--------------------------------------------|
E|-------------------------------------|     E|--------------------------------------------|


e|-17-0-0-17-0-0-17-0-0-17-17-19b-17-17-17-17-17-17-17-17-17-17-15-12-15-|
B|-----------------------------------------------------------------------|
G|-----------------------------------------------------------------------|
D|-----------------------------------------------------------------------|
A|-----------------------------------------------------------------------|
E|-----------------------------------------------------------------------|


e|-17-17-17-17-17-17-17-17-17-17-15-13/12-13p12---|
B|------------------------------------------------|
G|------------------------------------------------|
D|------------------------------------------------|
A|------------------------------------------------|
E|------------------------------------------------|


[Softer]

e|-(12)10--10----------------------12-10--10------------------------|
B|-------13--13-12-13-12-10-12-10-------13--13-12-13-12-10-10-10-10-|
G|-------------------------------12---------------------------------|
D|------------------------------------------------------------------|
A|------------------------------------------------------------------|
E|------------------------------------------------------------------|

e|-12-10--10----------------------12-10--10-------------------------|
B|------13--13-12-13-12-10-12-10-------13--13-12-13-12-10-12-10--10-|
G|------------------------------12-----------------------------12---|
D|------------------------------------------------------------------|
A|------------------------------------------------------------------|
E|------------------------------------------------------------------|

e|---------------------------------|
B|-----10-------10---------10------|
G|-9-12--12-9-12---12-9-12---12----|..
D|---------------------------------|
A|---------------------------------|
E|---------------------------------|



************************************

| (n)  Ghost note
| h    Hammer-on
| p    Pull-off
| b    Bend
| /    Slide up

************************************
Suggest correction
What's this?
You can suggest a correction to this tab. Community and Mods will review your correction and vote to approve or reject it.
comments
print report bad tab
23 comments total. Showing first comments.
0 reply
Statquote 16 wrote on March 9 2007, 10:38 pm

Great tab dude

0 reply
jhendrixrules 57 wrote on April 24 2007, 09:05 am

fantastic!

0 reply
rhcpfan27 556 wrote on May 16 2007, 05:31 pm

nice work man

guest
You may want to rate the tab now too:
select rating
Please do not post tabs as comments. Select "correction" instead!