Oops, an error
Loading. Please wait.

Californication Tab

version 1
version 1

Solo

Whole song

Video

680,326 views 1,611 this week
74 commentsread comments
1 2 3 4 5
x 289
add to favorites
launch autoscroll
font size
0
reset
how to read this tab
guitar tuner
×
Best way to learn
"Californication"
Autoscroll
slow
fast
+/-
esc
set tempo
stop
Tuning
E A D G B E
e|----------------9----------------------------------9-------------------------------------------|
B|---------10--------------------------------10--------------------------------------------------|
G|--------------------------11b--11---------------------11b-----11--11--11--11---9---------------|
D|----------------------------------------------------------------------------------------11--11-|
A|-----------------------------------------------------------------------------------------------|
E|-----------------------------------------------------------------------------------------------|

e|----------------------------------------------------------9------12----14---------9--12--------|
B|--------------------------------------------------10-------------------------10----------------|
G|----------------9-----11b--------9-------------------------------------------------------------|
D|-----9--11---------------------------------11--------------------------------------------------|
A|-----------------------------------------------------------------------------------------------|
E|-----------------------------------------------------------------------------------------------|

e|-----14b------------17----16---14---------------14---------------------------------------------|
B|------------------------------------------17---------------17-------14-----17---14-14-14-14----|
G|-----------------------------------------------------------------------------------------------|
D|-----------------------------------------------------------------------------------------------|
A|-----------------------------------------------------------------------------------------------|
E|-----------------------------------------------------------------------------------------------|

e|--------------------14b-----12------------12-----------------------------12---10--9------------|
B|----17-----14-----------------------14-------------14-----12---------------------------10------|
G|--------------------------------------------------------------------14-------------------------|
D|-----------------------------------------------------------------------------------------------|
A|-----------------------------------------------------------------------------------------------|
E|-----------------------------------------------------------------------------------------------|



****************
|b      Bend
****************
Suggest correction
comments
print report bad tab
74 comments total. Showing first comments.
+3 reply
nofx_2525 1,493 Sep 04, 2005 08:00 PM

great solo dude

-1 reply
burnBarney228 10 Nov 16, 2005 08:24 AM

perfect

0 reply
Lord Mike 10 Dec 23, 2005 02:28 AM

Excellent. Thanks!

guest
You may want to rate the tab now too:
select rating
Wanna post a correction for this tab? Suggest correction