Oops, an error
Loading. Please wait.

Californication Tab

version 10
version 10
166,706 views 57 this week
5 commentsread comments
1 2 3 4 5
x 19
add to favorites
launch autoscroll
font size
0
reset
how to read this tab
guitar tuner
Autoscroll
slow
fast
+/-
esc
set tempo
stop
Help us to improve Ultimate-Guitar.com Take our survey!
×
Author
Difficulty
intermediate
CALIFORNICATION
                      As recorded by Red Hot Chilli Peppers
                      (From the 2000 Album CALIFORNICATION)

Words and Music by Red Hot Chilli Peppers
Transcribed by Floyd Cribb

Gtr I (E A D G B E) - 'Gtr1'
Gtr II (E A D G B E) - 'Gtr2'
Gtr III (E A D G B E) - 'Synth'

[Intro]

     Moderate Rock Q=96
    4/4
     Gtr I
     E E E E +H       E E E E +H       E E E E +H       E E E E +H
e||-----------------|----------------|----------------|-----------------||
B||o-----0-1-(1)----|----------------|-----0-1-(1)----|----------------o||
G||-----------------|-----0-2-(2)----|----------------|-----0-2-(2)-----||
D||----2------------|----------------|---2------------|-----------------||
A||o-0--------------|---3------------|-0--------------|---3------------o||
E||-----------------|-1--------------|----------------|-1---------------||


[1st-5th Verses]

     $
     $$
     E E E E +H       E E E E +H       E E E E +H       E E E E +H
e||-----------------|----------------|----------------|----------------|
B||o-----0-1-(1)----|----------------|-----0-1-(1)----|----------------|
G||-----------------|-----0-2-(2)----|----------------|-----0-2-(2)----|
D||----2------------|----------------|---2------------|----------------|
A||o-0--------------|---3------------|-0--------------|---3------------|
E||-----------------|-1--------------|----------------|-1--------------|


                                      1.
                        To Dbl. Coda
   E E E E E E E E    E E E E E E q    E E E E +H       E E E E +H
e|------------------|-------------1--|----------------|----------------|
B|-----5------------|-------------3--|-----0-1-(1)----|----------------|
G|-------5-----7----|-----2-----2----|----------------|-----0-2-(2)----|
D|---5-----------5\-|-------3-0------|---2------------|----------------|
A|-3---------5------|---3------------|-0--------------|---3------------|
E|---------3--------|-1--------------|----------------|-1--------------|


   E E E E +H       E E E E +H
e|----------------|-----------------||
B|-----0-1-(1)----|----------------o||
G|----------------|-----0-2-(2)-----||
D|---2------------|-----------------||
A|-0--------------|---3------------o||
E|----------------|-1---------------||


  2.
   E S S E E +S  S E E S S   E S S E S S S S E S S E
e|-----0-0-0-(0)-0-0-0-0-0-|-0-0-0-0-0-0-0-0-0-0-0-0---|
B|-1-1-1-1-1-(1)-1-1-1-1-1-|-1-1-1-1-1-1-1-1-1-1-1-1---|
G|-2-2-2-2-2-(2)-2-2-2-2-2-|-2-2-2-2-2-2-2-2-2-2-2-2---|
D|-2-2-2-2-2-(2)-2-2-2-2-2-|-3-3-3-3-3-3-3-3-3-3-3-3---|
A|-0-0-0-0-0-(0)-0-0-0-0-0-|-3-3-3-3-3-3-3-3-3-3-3-3---|
E|-------------------------|-1-1-0-1-1-0-1-0-1-1-0-1---|


[Pre-Chorus]

   E S S E E +S  S E E S S   E S S E S S S S E E E    E E E S S +S  S E E E
e|-0-0-0-0-0-(0)-0-0-0-0-0-|-0-0-0-0-0-0---0-0-0-0-||-0-0-0-0-0-(0)-0-0-0-0--|
B|-1-1-1-1-1-(1)-1-1-1-1-1-|-1-1-1-1-1-1---1-1-1-1-||-1-1-1-1-1-(1)-1-1-1-1--|
G|-2-2-2-2-2-(2)-2-2-2-2-2-|-2-2-2-2-2-2---2-2-2-2-||-2-2-2-2-2-(2)-2-2-2-2--|
D|-2-2-2-2-2-(2)-2-2-2-2-2-|-3-3-3-3-3-3---3-3-3-3-||-2-2-2-2-2-(2)-2-2-2-2--|
A|-0-0-0-0-0-(0)-0-0-0-0-0-|-----------------------||-0-0-0-0-0-(0)-0-0-0-0--|
E|-------------------------|-1-1-1-1-1-1---1-1-1-1-||------------------------|


   E S S E S S +S  S E S E S   E E E S S +S  S E E E   E E E S S S S S S E S S
e|-0-0-0-0-0-0-(0)-0-0-0-0-0-|-0-0-0-0-0-(0)-0-0-0-0-|-0-0-0-0-0-0-0-0-0-0-0-0--|
B|-1-1-1-1-1-1-(1)-1-1-1-1-1-|-1-1-1-1-1-(1)-1-1-1-1-|-1-1-1-1-1-1-1-1-1-1-1-1--|
G|-2-2-2-2-2-2-(2)-2-2-2-2-2-|-2-2-2-2-2-(2)-2-2-2-2-|-2-2-2-2-2-2-2-2-2-2-2-2--|
D|-3-3-3-3-3-3-(3)-3-3-3-3-3-|-2-2-2-2-2-(2)-2-2-2-2-|-3-3-3-3-3-3-3-3-3-3-3-3--|
A|-3-3-3-3-3-3-(3)-3-3-3-3-3-|-0-0-0-0-0-(0)-0-0-0-0-|-3-3-3-3-3-3-3-3-3-3-3-3--|
E|-1-1-1-1-1-1-(1)-1-1-1-1-1-|-----------------------|-1-1-1-1-1-1-1-1-1-1-1-1--|


   E E E S S +S  S E E E   E E E. S +S  S E E S S   E E E S S +S  S E E E
e|-0-0-0-0-0-(0)-0-0-0-0-|-0-0-0--0-(0)-0-0-0-0-0-|-0-0-0-0-0-(0)-0-0-0-0-|
B|-1-1-1-1-1-(1)-1-1-1-1-|-1-1-1--1-(1)-1-1-1-1-1-|-1-1-1-1-1-(1)-1-1-1-1-|
G|-2-2-2-2-2-(2)-2-2-2-2-|-2-2-2--2-(2)-2-2-2-2-2-|-2-2-2-2-2-(2)-2-2-2-2-|
D|-2-2-2-2-2-(2)-2-2-2-2-|-3-3-3--3-(3)-3-3-3-3-3-|-2-2-2-2-2-(2)-2-2-2-2-|
A|-0-0-0-0-0-(0)-0-0-0-0-|-3-3-3--3-(3)-3-3-3-3-3-|-0-0-0-0-0-(0)-0-0-0-0-|
E|-----------------------|-1-1-1--1-(1)-1-1-1-1-1-|-----------------------|


[Chorus]

   E E E S S S S S S S S E    E S S Q  Q  q
e|-0-0-0-0-0-0-0-0-0-0-0-0-||-3-3-3-3--3--3--|
B|-1-1-1-1-1-1-1-1-1-1-1-1-||-1-1-1-1--0--0--|
G|-2-2-2-2-2-2-2-2-2-2-2-2-||-0-0-0-0--0--0--|
D|-3-3-3-3-3-3-3-3-3-3-3-3-||-2-2-2-2--0--0--|
A|-3-3-3-3-3-3-3-3-3-3-3-3-||-3-3-3-3--2--2--|
E|-1-1-1-1-1-1-1-1-1-1-1-1-||----------3--3--|


                         To Coda
   Q  q  Q  q    E E q  E E E E    +W
e|-1--1--0--0--|-3-3-3--3-3---1--|-(1)----||
B|-3--3--1--1--|-1-1-1--0-0---3--|-(3)----||
G|-2--2--2--2--|-0-0-0--0-0---2--|-(2)----||
D|-0--0--2--2--|-2-2-2--0-0---0--|-(0)----||
A|-------0--0--|-3-3-3--2-2------|--------||
E|-------------|--------3-3------|--------||


    E E E E +H            E  E E E +H
e|--------------------|-------------------|
B|------0-1-(1)-------|-------------------|
G|--------------------|--------0-2-(2)----|
D|----2---------------|-------------------|
A|--0-----------------|------3------------|
E|--------------------|---1---------------|
|
 | Gtr III
 |  H        E  Q   E    +W
e|-12-------12--7---8-|--(8)--------------|
B|-13-------13--8--10-|-(10)--------------|
G|-14-------14--9--10-|-(10)--------------|
D|--------------------|-------------------|
A|--------------------|-------------------|
E|--------------------|-------------------|


                           D.S. al Coda
    E E E E  +H            E E E E +H
e|----------------------|-----------------||
B|------0-1--(1)--------|-----------------||
G|----------------------|------0-2-(2)----||
D|----2-----------------|-----------------||
A|--0-------------------|----3------------||
E|----------------------|--1--------------||
|
 |  H        +E   Q   E    W
e|-12-------(12)-15--12-|--8--------------||
B|-13-------(13)-17--13-|-10--------------||
G|-14-------(14)-17--14-|-10--------------||
D|----------------------|-----------------||
A|----------------------|-----------------||
E|----------------------|-----------------||


   &
   +E  E E. S S S E S S E   Q  q  Q  q
e|-(1)-1-1--1-1-1-1-1-1---|-3--3--3--3--|
B|-(3)-3-3--3-3-3-3-3-3---|-1--1--0--0--|
G|-(2)-2-2--2-2-2-2-2-2---|-0--0--0--0--|
D|-(0)-0-0--0-0-0-0-0-0---|-2--2--0--0--|
A|------------------------|-3--3--2--2--|
E|------------------------|-------3--3--|


   Q  E S S Q  Q    Q  Q  E E E E   +W
e|-1--1-1-1-0--0--|-3--3--3-3---1-|-(1)----|
B|-3--3-3-3-1--1--|-1--1--0-0---3-|-(3)----|
G|-2--2-2-2-2--2--|-0--0--0-0---2-|-(2)----|
D|-0--0-0-0-2--2--|-2--2--0-0---0-|-(0)----|
A|----------0--0--|-3--3--2-2-----|--------|
E|----------------|-------3-3-----|--------|


[Guitar Solo]

   Gtr II
    Q.    E +Q     E     +E     +W
e|--------9-(9)--------------|------------------|
B|-10------------------------|------------------|
G|----------------11b13r(11)-|-(11)-------------|
D|---------------------------|------------------|
A|---------------------------|------------------|
E|---------------------------|------------------|
|
 | Gtr III
 |  Q   E E +E  E  q             Q.   E +Q   q
e|--2---2-2-(2)-2--2---------|---2----2-(2)--2--|
B|--2---2-2-(2)-2--2---------|---2----2-(2)--2--|
G|--2---2-2-(2)-2--2---------|---2----2-(2)--2--|
D|--4---4-6-(6)-4--2---------|---0----0-(0)--0--|
A|---------------------------|------------------|
E|---------------------------|------------------|


    Q.    E +E     Q     +E     +H       +E   E  E  E
e|--------9-(9)--------------|------------------------|
B|-10------------------------|------------------------|
G|----------------11b13r(11)-|-(11)-----(11)-11-11-11-|
D|---------------------------|------------------------|
A|---------------------------|------------------------|
E|---------------------------|------------------------|
|
 |  Q   E E +E  E  q             Q.   E  +E   E  Q
e|--2---2-2-(2)-2--2---------|---2----2--(2)--2--2----|
B|--2---2-2-(2)-2--2---------|---2----2--(2)--2--2----|
G|--2---2-2-(2)-2--2---------|---2----2--(2)--2--2----|
D|--4---4-6-(6)-4--2---------|---0----0--(0)--0--0----|
A|---------------------------|------------------------|
E|---------------------------|------------------------|


                                         |--3---|
   S S  E  H      E  E   Q    E     +E   E E    E  +Q      Q.    E +E   Q    E
|----------------------|--------------------------------|--------9-(9)-12---14-|
|----------------------|--------------------------------|-10-------------------|
|-11p9-----------------|-9---11b13r(11)-11-9------------|----------------------|
|------11-11------9-11-|-----------------------11-(11)--|----------------------|
|----------------------|--------------------------------|----------------------|
|----------------------|--------------------------------|----------------------|
|
 |  E    E  Q  E E Q      E E  Q          E   E      Q      Q   E E +E   E q
e|--2----2--2-----------|-5-5--5-------------------------|--2---2-2-(2)--2-2----|
B|--2----2--2--7-7-7----|-5-5--5----------9---9------9---|--2---2-2-(2)--2-2----|
G|--4----4--4--7-7-7----|-6-6--6----------9---9------9---|--2---2-2-(2)--2-2----|
D|--4----4--4--7-7-7----|-7-7--7----------9---9------9---|--4---4-6-(6)--4-2----|
A|--2----2--2--5-5-5----|-7-7--7----------7---7------7---|----------------------|
E|----------------------|-5-5--5----------0---0------0---|----------------------|


     ~~~~
    +W                 Q.    E +E   Q    E
e|-(14)-------------|--------9-(9)-12---14b16==|
B|------------------|-10-----------------------|
G|------------------|--------------------------|
D|------------------|--------------------------|
A|------------------|--------------------------|
E|------------------|--------------------------|
|
 |   Q.   E +Q   q     Q   E E +E   E q
e|---2----2-(2)--2--|--2---2-2-(2)--2-2--------|
B|---2----2-(2)--2--|--2---2-2-(2)--2-2--------|
G|---2----2-(2)--2--|--2---2-2-(2)--2-2--------|
D|---0----0-(0)--0--|--4---4-6-(6)--4-2--------|
A|------------------|--------------------------|
E|------------------|--------------------------|


    +E    Q.     +Q    Q     Q    Q   Q    Q
e|-(14)r-14-----(14)------|-17---16--14-------|
B|------------------------|---------------17--|
G|------------------------|-------------------|
D|------------------------|-------------------|
A|------------------------|-------------------|
E|------------------------|-------------------|
|
 |   Q.       E  +E  E Q     E E  Q   E E  Q
e|---2--------2--(2)-2-2--|--2-2--2-----------|
B|---2--------2--(2)-2-2--|--2-2--2---7-7--7--|
G|---2--------2--(2)-2-2--|--4-4--4---7-7--7--|
D|---0--------0--(0)-0-0--|--4-4--4---7-7--7--|
A|------------------------|--2-2--2---5-5--5--|
E|------------------------|-------------------|


    Q    E  E  +E   Q    E    +E   Q.       E  Q.
e|-14----------------------|---------------------------|
B|------17-14-(14)-17---14-|-(14)-------------14-------|
G|-------------------------|------16b18----16-16b18----|
D|-------------------------|---------------------------|
A|-------------------------|---------------------------|
E|-------------------------|---------------------------|
|
 |  E E  Q      E   E Q        E   E    Q   E  E    Q
e|--5-5--5-----------------|---5---5----5--------------|
B|--5-5--5------9---9-9----|---5---5----5---9--9----9--|
G|--6-6--6------9---9-9----|---6---6----6---9--9----9--|
D|--7-7--7------9---9-9----|---7---7----7---9--9----9--|
A|--7-7--7------7---7-7----|---7---7----7---7--7----7--|
E|--5-5--5------0---0-0----|---5---5----5---0--0----0--|


    E  E     +E   E  E   Q    E       +E   E  E  E  +E   Q    E
e|---------------------------------|----------------------------|
B|-14-14----(14)-17-17--14---19b21r|=(19)-17----17-(17)---------|
G|-16-16b18-(16)-------------------|---------18---------18---16-|
D|---------------------------------|----------------------------|
A|---------------------------------|----------------------------|
E|---------------------------------|----------------------------|
|
 |  Q         E   E +E   E q           E   E  Q      E   E Q
e|--2---------2---2-(2)--2-2-------|---5---5--5-----------------|
B|--2---------2---2-(2)--2-2-------|---5---5--5------9---9-9----|
G|--2---------2---2-(2)--2-2-------|---6---6--6------9---9-9----|
D|--4---------4---6-(6)--4-2-------|---7---7--7------9---9-9----|
A|---------------------------------|---7---7--7------7---7-7----|
E|---------------------------------|---5---5--5------0---0-0----|


    +E   Q    E  +E   Q    E     W
e|---------------------------||-----------------|
B|-----------17-(17)-15---14-||-----------------|
G|-(16)-14-------------------||-14--------------|
D|---------------------------||-----------------|
A|---------------------------||-----------------|
E|---------------------------||-----------------|
|
 |                           Gtr I
 |   Q     E  E  +E   E q        E E E E +H
e|---2-----2--2--(2)--2-2----||-----------------|
B|---2-----2--2--(2)--2-2----||------0-1-(1)----|
G|---2-----2--2--(2)--2-2----||-----------------|
D|---4-----4--6--(6)--4-2----||----2------------|
A|---------------------------||--0--------------|
E|---------------------------||-----------------|


                              D.S.S. al Dbl. Coda
   W                W                W
e|----------------|----------------|----------------||
B|----------------|----------------|----------------||
G|----------------|----------------|----------------||
D|----------------|----------------|----------------||
A|----------------|----------------|----------------||
E|----------------|----------------|----------------||
|
 | E E E E +H       E E E E +H       E E E E +H
e|----------------|----------------|----------------||
B|----------------|-----0-1-(1)----|----------------||
G|-----0-2-(2)----|----------------|-----0-2-(2)----||
D|----------------|---2------------|----------------||
A|---3------------|-0--------------|---3------------||
E|-1--------------|----------------|-1--------------||


   &&
   Gtr I
   E S S E E +S  S E E S S   E S S E S S S S E S S E
e|-----0-0-0-(0)-0-0-0-0-0-|-0-0-0-0-0-0-0-0-0-0-0-0-|
B|-1-1-1-1-1-(1)-1-1-1-1-1-|-1-1-1-1-1-1-1-1-1-1-1-1-|
G|-2-2-2-2-2-(2)-2-2-2-2-2-|-2-2-2-2-2-2-2-2-2-2-2-2-|
D|-2-2-2-2-2-(2)-2-2-2-2-2-|-3-3-3-3-3-3-3-3-3-3-3-3-|
A|-0-0-0-0-0-(0)-0-0-0-0-0-|-3-3-3-3-3-3-3-3-3-3-3-3-|
E|-------------------------|-1-1-0-1-1-0-1-0-1-1-0-1-|


[Pre-Chorus]

   E S S E E +S  S E E S S   E S S E S S S S E E E    E E E S S +S  S E E E
e|-0-0-0-0-0-(0)-0-0-0-0-0-|-0-0-0-0-0-0---0-0-0-0-||-0-0-0-0-0-(0)-0-0-0-0--|
B|-1-1-1-1-1-(1)-1-1-1-1-1-|-1-1-1-1-1-1---1-1-1-1-||-1-1-1-1-1-(1)-1-1-1-1--|
G|-2-2-2-2-2-(2)-2-2-2-2-2-|-2-2-2-2-2-2---2-2-2-2-||-2-2-2-2-2-(2)-2-2-2-2--|
D|-2-2-2-2-2-(2)-2-2-2-2-2-|-3-3-3-3-3-3---3-3-3-3-||-2-2-2-2-2-(2)-2-2-2-2--|
A|-0-0-0-0-0-(0)-0-0-0-0-0-|-----------------------||-0-0-0-0-0-(0)-0-0-0-0--|
E|-------------------------|-1-1-1-1-1-1---1-1-1-1-||------------------------|


[Chorus]

   E E E S S S S S S S S E    E    S S Q    Q   Q
e|-0-0-0-0-0-0-0-0-0-0-0-0-||-3----3-3-3----3---3---|
B|-1-1-1-1-1-1-1-1-1-1-1-1-||-1----1-1-1----0---0---|
G|-2-2-2-2-2-2-2-2-2-2-2-2-||-0----0-0-0----0---0---|
D|-3-3-3-3-3-3-3-3-3-3-3-3-||-2----2-2-2----0---0---|
A|-3-3-3-3-3-3-3-3-3-3-3-3-||-3----3-3-3----2---2---|
E|-1-1-1-1-1-1-1-1-1-1-1-1-||---------------3---3---|
|
 | Gtr II                     Gtr III
 | W                          S  S Q     E +Q   E E
e|-------------------------||-----------------------|
B|-------------------------||-8-10p8----------------|
G|-------------------------||------------9-(9)--7-9-|
D|-------------------------||-----------------------|
A|-------------------------||-----------------------|
E|-------------------------||-----------------------|


    Q   Q  Q  q    E    E q    E  E E E   +W
e|--1---1--0--0--|-3----3-3----3--3---1-|-(1)---------||
B|--3---3--1--1--|-1----1-1----0--0---3-|-(3)---------||
G|--2---2--2--2--|-0----0-0----0--0---2-|-(2)---------||
D|--0---0--2--2--|-2----2-2----0--0---0-|-(0)---------||
A|---------0--0--|-3----3-3----2--2-----|-------------||
E|---------------|-------------3--3-----|-------------||
|
 | +H      H       S  S Q   E +Q    E E   +H     H
e|---------------|----------------------|-------------||
B|---------------|-8h10p8---------------|-------------||
G|-(9)-----------|----------9-(9)---7-9-|-(9)---------||
D|---------------|----------------------|-------------||
A|---------------|----------------------|-------------||
E|---------------|----------------------|-------------||


   Gtr III
   S  S Q   E +Q    E E   +H      H
e|----------------------|------------------|
B|-8h10p8---------------|------------------|
G|----------9-(9)---7-9-|-(9)--------------|
D|----------------------|------------------|
A|----------------------|------------------|
E|----------------------|------------------|
|
 | Gtr I
 | Q      q    E  E E E    Q   Q  Q  E S S
e|-3------3----3--3-3-3-|--1---1-----------|
B|-1------1----0--0-0-0-|--3---3--1--1-1-1-|
G|-0------0----0--0-0-0-|--2---2--2--2-2-2-|
D|-2------2----0--0-0-0-|--0---0--2--2-2-2-|
A|-3------3----2--2-2-2-|---------0--0-0-0-|
E|-------------3--3-3-3-|------------------|


   a  E Q     E +E  E E E   +H     H
e|------------------------|-------------*|
B|-8h10p8-----------------|-------------*|
G|------------9-(9)-7---9-|-(9)---------*|
D|--------------------7---|-------------*|
A|------------------------|-------------*|
E|------------------------|-------------*|
|
 |    E S S q    E  E E E   +W
e|----3-3-3-3----3--3-3-1-|-(1)---------*|
B|----1-1-1-1----0--0-0-3-|-(3)---------*|
G|----0-0-0-0----0--0-0-2-|-(2)---------*|
D|----2-2-2-2----0--0-0-0-|-(0)---------*|
A|----3-3-3-3----2--2-2---|-------------*|
E|---------------3--3-3---|-------------*|



************************************

| (n)  Ghost note
| h    Hammer-on
| p    Pull-off
| r    Release
| b    Bend
| \    Slide down 

************************************
Suggest correction
comments
print report bad tab
5 comments total. Showing first comments.
0 reply
jsomijimmy 10 Jul 04, 2007 02:10 PM

nice with rhythm for the solo, and synth arranged for guitar :) did you use some kind of program for making this?

0 reply
YoghurtPeople 176 Jul 15, 2007 01:19 AM

Power Tab :D

I simply transferred form someone else's work so you people can use it :D

0 reply
ashley1415 10 Mar 02, 2008 11:15 AM

this tab is very good just one note on the solo could be better. its not wrong but i does help the flow of the notes better

+E Q. +Q Q Q Q Q Q
|-(14)r-14-----(14)------|-17---16--14-------|
|------------------------|---------------17--|

guest
You may want to rate the tab now too:
select rating
Wanna post a correction for this tab? Suggest correction