Oops, an error
Loading. Please wait.

Californication Ukulele Chords

version 2
version 2

Whole song

  • This tab includes solo and main riff of ukulele.
67 views 18 this week
no commentswrite comment
1 2 3 4 5
2 more votes to show rating
add to favorites
launch autoscroll
font size
0
reset
transpose
0
reset
display chords
guitar tuner
Autoscroll
slow
fast
+/-
esc
set tempo
stop
Help us to improve Ultimate-Guitar.com Take our survey!
×
Author
Difficulty
intermediate
About this tab version
This tab includes solo and main riff of ukulele. Was this info helpful? Yes No
[Intro]
A|--0-----2--3---------------------------------|\
E|-----0---------------------------------------| \
C|-------------------------5--0---------2-0----| /6x
G|--------------0-0-2-0-----------0--2---------|/

Am
Psychic spies from China
       F 
Try to steal your mind's elation
Am
Little girls from Sweden
         F   
Dream of silver screen quotations
    C                 G
And if you want these kind of dreams
     F        D
It's Californication
        
A|--0-----2--3---------------------------------|\
E|-----0---------------------------------------| \
C|-------------------------5--0---------2-0----| /2x
G|--------------0-0-2-0-----------0--2---------|/

[Verse]

         Am
It's the edge of the world
           F
And all of western civilization
    Am
The sun may rise in the East
            F
At least it settles in the final location
     C               G
It's understood that Hollywood
      F        D
sells Californication

A|--0-----2--3---------------------------------|\
E|-----0---------------------------------------| \
C|-------------------------5--0---------2-0----| /2x
G|--------------0-0-2-0-----------0--2---------|/

[Pre Chorus]

Am
Pay your surgeon very well
   F
To break the spell of aging
Am   
Celebrity skin is this your chin
    F
Or is that war your waging
Am            F
First born unicorn
Am             F
Hardcore soft porn

[Chorus]

C            G     D      Am
Dream of Californication
C            G     D
Dream of Californication

A|--0-----2--3---------------------------------|\
E|-----0---------------------------------------| \
C|-------------------------5--0---------2-0----| /2x
G|--------------0-0-2-0-----------0--2---------|/


[Verse]

Am       
Marry me girl be my fairy to the world
      F
Be my very own constellation
  Am
A teenage bride with a baby inside
        F
Getting high on information
    C                   G 
And buy me a star on the boulevard
     F        D
It's Californication

A|--0-----2--3---------------------------------|\
E|-----0---------------------------------------| \
C|-------------------------5--0---------2-0----| /2x
G|--------------0-0-2-0-----------0--2---------|/

 
[Verse]
        

Am
Space may be the final frontier
         F
But it's made in a Hollywood basement
Am       
Cobain can you hear the spheres
        F
Singing songs off station to station
     C            G
And Alderon's not far away
     F        D
It's Californication

A|--0-----2--3---------------------------------|\
E|-----0---------------------------------------| \
C|-------------------------5--0---------2-0----| /2x
G|--------------0-0-2-0-----------0--2---------|/


[Pre Chorus]

Am
Born and raised by those who praise       
      F               
Control of population 
 Am
Everybody's been there and
  F
I don't mean on vacation
Am            F
First born unicorn
Am            F
Hardcore soft porn

[Chorus]
C            G    D       Am
Dream of Californication
C            G    D
Dream of Californication
C            G    D       Am
Dream of Californication
C            G    D
Dream of Californication

[Solo]
A]---------------------------------------------------------|
E]----------------------------------5----------------------|
C]---------------4--6---6---4------------------------------|
G]-6--6-----4-6-------------6----------6---9----11---------|
                               
A]---------------------------------------------------------------|
E]-5---------------^---------------------------------------------|
C]---------------------------------------------------------------|
G]------6---9----11-----11--------14----13----11----9---11----9--|
                                           S                 
A]-----------------------------------------------------------|
E]-----------------------------------------------------------|
C]----------------11----11----11-----------------------------|
G]-6----9----6----6-----6-----6----9----6----11---11---9--6--|
                                            
A]------------------------------------------|
E]----------------5---------------------5---|
C]------------------------------------------|
G]-9----6----4---------9-----7-----6--------|


[Verse]

Am   
Destruction leads to a very rough road
       F
But it also breeds creation
    Am
And earthquakes are to a girl's guitar
        F
They're just another good vibration
    C                    G
And tidal waves couldn't save the world
     F        D
From Californication

A|--0-----2--3---------------------------------|\
E|-----0---------------------------------------| \
C|-------------------------5--0---------2-0----| /2x
G|--------------0-0-2-0-----------0--2---------|/

[Pre Chorus]

Am
Pay your surgeon very well
   F
To break the spell of aging
Am
Sicker than the rest there is no test
    F     
But this is what you're craving
Am            F
First born unicorn
Am            F
Hardcore soft porn

[Chorus]

C            G    D      Am
Dream of Californication
C            G    D
Dream of Californication
C            G    D      Am
Dream of Californication
C            G    D
Dream of Californication
Suggest correction
Give kudos to tab author, rate the tab!
1 2 3 4 5
comments
print report bad tab
guest
You may want to rate the tab now too:
select rating
Wanna post a correction for this tab? Suggest correction