Oops, an error
Loading. Please wait.
2,303,981 views 2,202 this week
185 commentsread comments
1 2 3 4 5
excellent!
x 657
add to favorites
launch autoscroll
font size
0
reset
how to read this tab
guitar tuner
Tab Pro tools
  • play this tab
  • loop segment
  • change instrument
  • show fretboard
  • metronome
×
Best way to learn
"Cant Stop"
Autoscroll
slow
fast
+/-
esc
set tempo
stop
Artist: Red Hot Chili Peppers
Title: Can't Stop


[INTRO]

e|------------------------------|   |--------------------------------|
B|------------------------------|   |--------------------------------|
G|------------------------------|   |--------------------------------|
D|------------------------------|x4 |--------------------------------|x1
A|-5-7---5-7---5-7---5-7---5-7--|   |-5-7---5-7---5-7---5----5-7-----|
E|------------------------------|   |---------------------7----------|
                                                                           

e|------------------------------|
B|------------------------------|
G|------------------------------|
D|------------------------------|x3 
A|-5-7---5-7---5-7---5-7---5-7--|
E|------------------------------|
                                  

[VERSE 1 & 2]

Riff A
e|-------------------------------------------------------------|
B|-------------------------------------------------------------|
G|------7--9---------7--9------------7--9---------7--9---------|
D|-------------------------------------------------------------|
A|-7-7--------7-7-7--------7-7-7--5--------5-5-5-------5-5-5---|
E|-------------------------------------------------------------|
                                                                              

e|-------------------------------------------------------------|
B|-------------------------------------------------------------|
G|----7--9---------7--9------------7--9--------7--9------------|
D|-------------------------------------------------------------| x4
A|-------------------------------------------------------------|
E|-7--------7-7-7--------7-7-7--8-------8-8-8--------8-8-8-----|
                                                                          

Riff B
e|-------------------------------------------------------------|
B|-------------------------------------------------------------|
G|------7--9---------7--9------------7--9---------7--9---------|
D|-------------------------------------------------------------|
A|-7-7--------7-7-7--------7-7-7--5--------5-5-5-------5-5-5---|
E|-------------------------------------------------------------|
                                                                              
e|--------------------------------7--7--7--7---|
B|--------------------------------8--8--8--8---|
G|----7--9---------7--9-----------9--9--9--9---|
D|---------------------------------------------|
A|---------------------------------------------|
E|-7--------7-7-7--------7-7-7-----------------|


[CHORUS]

e|-7--7---7--7--7----2--2---5--5--5----3--3---7--7--7----2--2---5--5--5-------|
B|-8--8---7--7--7----3--3---5--5--5----3--3---7--7--7----3--3---5--5--5-------|
G|-9--9---7--7--7----4--4---5--5--5----4--4---7--7--7----4--4---5--5--5-------|
D|-9--9---7--7--7----4--4---5--5--5----5--5---7--7--7----4--4---5--5--5-------|
A|-7--7---5--5--5----2--2---3--3--3----5--5---5--5--5----2--2---3--3--3-------|
E|-------------------------------------3--3-----------------------------------|
                                                                              
e|-7--7---7--7--7----2--2---5--5--5----3--3---7--7--7----2--3---|
B|-8--8---7--7--7----3--3---5--5--5----3--3---7--7--7----3--5---|
G|-9--9---7--7--7----4--4---5--5--5----4--4---7--7--7----4--5---|
D|-9--9---7--7--7----4--4---5--5--5----5--5---7--7--7----4--5---|
A|-7--7---5--5--5----2--2---3--3--3----5--5---5--5--5----2--3---|
E|-------------------------------------3--3---------------------|


[Verse]
    
Riff A
e|-------------------------------------------------------------|
B|-------------------------------------------------------------|
G|------7--9---------7--9------------7--9---------7--9---------|
D|-------------------------------------------------------------|
A|-7-7--------7-7-7--------7-7-7--5--------5-5-5-------5-5-5---|
E|-------------------------------------------------------------|
                                                                              

e|-------------------------------------------------------------|
B|-------------------------------------------------------------|
G|----7--9---------7--9------------7--9--------7--9------------|
D|-------------------------------------------------------------| x4
A|-------------------------------------------------------------|
E|-7--------7-7-7--------7-7-7--8-------8-8-8--------8-8-8-----|
                                                                          

Riff B
e|-------------------------------------------------------------|
B|-------------------------------------------------------------|
G|------7--9---------7--9------------7--9---------7--9---------|
D|-------------------------------------------------------------|
A|-7-7--------7-7-7--------7-7-7--5--------5-5-5-------5-5-5---|
E|-------------------------------------------------------------|
                                                                              
e|--------------------------------7--7--7--7---|
B|--------------------------------8--8--8--8---|
G|----7--9---------7--9-----------9--9--9--9---|
D|---------------------------------------------|
A|---------------------------------------------|
E|-7--------7-7-7--------7-7-7-----------------|

[CHORUS]

e|-7--7---7--7--7----2--2---5--5--5----3--3---7--7--7----2--2---5--5--5-------|
B|-8--8---7--7--7----3--3---5--5--5----3--3---7--7--7----3--3---5--5--5-------|
G|-9--9---7--7--7----4--4---5--5--5----4--4---7--7--7----4--4---5--5--5-------|
D|-9--9---7--7--7----4--4---5--5--5----5--5---7--7--7----4--4---5--5--5-------|
A|-7--7---5--5--5----2--2---3--3--3----5--5---5--5--5----2--2---3--3--3-------|
E|-------------------------------------3--3-----------------------------------|
                                                                              
e|-7--7---7--7--7----2--2---5--5--5----3--3---7--7--7----2--3---|
B|-8--8---7--7--7----3--3---5--5--5----3--3---7--7--7----3--5---|
G|-9--9---7--7--7----4--4---5--5--5----4--4---7--7--7----4--5---|
D|-9--9---7--7--7----4--4---5--5--5----5--5---7--7--7----4--5---|
A|-7--7---5--5--5----2--2---3--3--3----5--5---5--5--5----2--3---|
E|-------------------------------------3--3---------------------|   

[VERSE 3]

e|--7--7--7---5--5--5---2--2--2---3--3--3-------------------------------------|
B|--8--8--8---7--7--7---3--3--3---5--5--5-------------------------------------|
G|--9--9--9---7--7--7---4--4--4---5--5--5-------------------------------------|
D|----------------------------------------------------------------------------|
A|----------------------------------------------------------------------------|
E|----------------------------------------------------------------------------|
                                                                              
[SOLO]

e|----------------------------------------------------------------------------|
B|-15b17-----15b17---15---15---12---12----------------------------------------|
G|--------------------------------------12---12-------------------------------|
D|----------------------------------------------------------------------------|
A|----------------------------------------------------------------------------|
E|----------------------------------------------------------------------------|
   Little variations in the repeats, Just solo in Emin or Gmaj 
comments
print report bad tab
185 comments total. Showing first comments.
+11 reply
DJlead wrote on January 29 2003, 12:00 am

fkin awesome!!!

+7 reply
sleepyguitar wrote on February 20 2003, 12:00 am

Great tab! Thanks for this.

+7 reply
spiderman86 wrote on February 27 2003, 12:00 am

nice!!!!!!!!!!

I want to post or [tab]
guest
You may want to rate the tab now too:
select rating
Please do not post tabs as comments. Select "correction" instead!