Oops, an error
Loading. Please wait.
72,903 views 60 this week
20 commentsread comments
1 2 3 4 5
accurate
x 38
add to favorites
launch autoscroll
font size
0
reset
how to read this tab
guitar tuner
Autoscroll
slow
fast
+/-
esc
set tempo
stop
Help us to improve Ultimate-Guitar.com Take our survey!
×
Author
Cant Stop
Red Hot Chili Peppers
By The Way

tabbed by TomAnthony

Intro
e------------------------------------------------------
B------------------------------------------------------
G------------------------------------------------------
D-0-2~--0-2--0-2--0-2--0-2----0-2~--0-2--0-2--0-2------
A------------------------------------------------------
E------------------------------------------------------

e------------------------------------------------------
B------------------------------------------------------
G------------------------------------------------------
D-0-2~--0-2--0-2--0-2--0-2----0-2~--0-2--0-2--0-2------
A------------------------------------------------------
E------------------------------------------------------
           1/4 bend
e------------------------------------------------------
B------------------------------------------------------
G------------------------------------------------------
D-0-2~--0-2b--0-2--0-----0-2----0-2--0-2--0-2--0-2-----
A--------------------2p0-------------------------------
E------------------------------------------------------

e------------------------------------------------------
B------------------------------------------------------
G------------------------------------------------------
D-0-2~--0-2--0-2--0-2--0-2----0-2~--0-2--0-2--0-2------
A------------------------------------------------------
E------------------------------------------------------

Verse
e-------------------------------------------------------------
B-------------------------------------------------------------
G------7-9-------7-9---------7-9------7-9---------------------
D--------------------------0-----0-0-0---0-0-0----------------
A--7-7-----7-7-7-----7-7-7------------------------------------
E-------------------------------------------------------------

e----------------------------------------------------|-R-----
B----------------------------------------------------|-E-----
G-----7-9-------7-9---------7-9---7-9-------7-9------|-P-X-3-
D----------------------------------------------------|-E-----
A----------------------------------------------------|-A-----
E---7-----7-7-7-----7-7-7-8-----8-----8-8-8----8-8-8-|-T-----

e-------------------------------------------------------------
B-------------------------------------------------------------
G------7-9-------7-9---------7-9------7-9---------------------
D--------------------------0-----0-0-0---0-0-0----------------
A--7-7-----7-7-7-----7-7-7------------------------------------
E-------------------------------------------------------------

e------------------------5-----5-----5-----5-----5------------
B--------------------------6-----6-----6-----6-----6----------
G-----7-9-------7-9----------7-----7-----7-----7-----7--------
D-------------------------------------------------------------
A-------------------------------------------------------------
E---7-----7-7-7-----7-7-7-------------------------------------
                                 *-USE THUMB
Chorus
   G          D          B       C                    
e-3---3----2---2-2---2---2----7-----7------------------
B-3---3----3---3-3---3---3----8-----8------------------
G-4---4----2---2-2---4---4----9-----9------------------
D-5---5----4---4-4---4---4----10-10-10-----------------
A-5---5----5---5-5---2---2-------x---------------------
E--------------------------------8*--------------------
   G          D          B       C
e-3---3----5---5-5---2---2----7-----7------------------
B-3---3----7---7-7---3---3----8-----8------------------
G-4---4----7---7-7---4---4----9-----9------------------
D-5---5----7---7-7---4---4----10-10-10-----------------
A-5---5----5---5-5---2---2-------x---------------------
E--------------------------------8*--------------------
   G          D          B       C
e-3---3----2---2-2---2---2----7-----7------------------
B-3---3----3---3-3---3---3----8-----8------------------
G-4---4----2---2-2---4---4----9-----9------------------
D-5---5----4---4-4---4---4----10-10-10-----------------
A-5---5----5---5-5---2---2-------x---------------------
E--------------------------------8*--------------------
  G        D          B     C
e-3---3----2---2-2----5-----7--------------------------
B-3---3----3---3-3----3-----8--------------------------
G-4---4----2---2-2----x-----9--------------------------
D-5---5----4---4-4----4-----10-------------------------
A-5---5----5---5-5----2-----x--------------------------
E---------------------------8*-------------------------

Interlude (Guitar 1)
e----7--7--7--7----5-5-5-5----2-2-2-2----3-3-3-3-------
B----8--8--8--8----7-7-7-7----3-3-3-3----5-5-5-5-------
G--9-9--9--9--9--7-7-7-7-7--4-4-4-4-4--5-5-5-5-5-------
D--9-9--9--9--9--7-7-7-7-7--4-4-4-4-4--5-5-5-5-5-------
A------------------------------------------------------
E------------------------------------------------------

e----7--7--8--8----5-5-5-7----2-2-2-5----3-3-3-5---r----
B----8--8--8--8----7-7-7-7----3-3-3-3----5-5-5-5---e----
G--9-9--9--9--9--7-7-7-7-7--4-4-4-4-4--5-5-5-5-5---p----
D--9-9--9--9--9--7-7-7-7-7--4-4-4-4-4--5-5-5-5-5---e----
A--------------------------------------------------a----
E--------------------------------------------------t----

Interlude (Guitar 2)-pedal of some sort
e--7--7--7--7--7----5--5--5--5--5----2--2--2--2--2----3--3--3--3--5--
B---8--8--8--8--8----7--7--7--7--7----3--3--3--3--3----5--5--5--5--5-
G-9--9--9--9--9--9-7--7--7--7--7--7-4--4--4--4--4--4-5--5--5--5--5--5
D-9----------------7----------------4----------------5---------------
A--------------------------------------------------------------------
E--------------------------------------------------------------------

e--7--7--8--8--8----5--5--5--5--5----2--2--5--5--5----3--3--3--3--3--
B---8--8--8--8--8----7--7--7--7--7----3--3--3--3--3----5--5--5--5--5-
G-9--9--9--9--9--9-7--7--7--7--7--7-4--4--4--4--4--4-5--5--5--5--5--5
D-9----------------7----------------4----------------5---------------
A--------------------------------------------------------------------
E--------------------------------------------------------------------

Solo                                               full        full  
e--10/12----12-10----10------------------10/12--12b----10---10b--
B-----------------------12--12--------8--------------------------
G----------------------------------------------------------------
D----------------------------------------------------------------
A----------------------------------------------------------------
E----------------------------------------------------------------

e-------10---------------|
B----12-----8/10----8----|
G------------------------|
D------------------------|
A------------------------|
E------------------------|

Last Verse
e-------------------------------------------------------------
B-------------------------------------------------------------
G------7-9-------7-9---------7-9------7-9---------------------
D--------------------------0-----0-0-0---0-0-0----------------
A--7-7-----7-7-7-----7-7-7------------------------------------
E-------------------------------------------------------------

e----------------------------------------------------|-R-----
B----------------------------------------------------|-E-----
G-----7-9-------7-9---------7-9---7-9-------7-9------|-P-X-3-
D----------------------------------------------------|-E-----
A----------------------------------------------------|-A-----
E---7-----7-7-7-----7-7-7-8-----8-----8-8-8----8-8-8-|-T-----

e-------------------------------------------------------------
B-------------------------------------------------------------
G------7-9-------7-9---------7-9------7-9---------------------
D--------------------------0-----0-0-0---0-0-0----------------
A--7-7-----7-7-7-----7-7-7------------------------------------
E-------------------------------------------------------------

             hold 1/4 bend___________________________________  
   
e--------------------------------------------------------------------
B--------------------------------------------------------------------
G-----7-9-------7-9-------9p7-7---9p7-7---9p7-7---9p7-7---9p7-7------
D--------------------------------------------------------------------
A--------------------------------------------------------------------
E---7-----7-7-7-----7-7-7--------------------------------------------
Suggest correction
What's this?
You can suggest a correction to this tab. Community and Mods will review your correction and vote to approve or reject it.
comments
print report bad tab
20 comments total. Showing first comments.
0 reply
mongcheez 22 wrote on July 1 2003, 12:00 am

OKay.not the way i would have done it.still worthy of four stars though!!!

0 reply
tom_b87 87 wrote on November 7 2003, 12:00 am

i like the solo, its a good way to play it :)

0 reply
agracer 92 wrote on December 23 2003, 12:00 am

5 Stars *****

guest
You may want to rate the tab now too:
select rating
Please do not post tabs as comments. Select "correction" instead!