Oops, an error
Loading. Please wait.
1,470 views 6 this week
no commentswrite comment
1 2 3 4 5
1 last vote to show rating
add to favorites
launch autoscroll
font size
0
reset
guitar tuner
backing track
0:00
0:00
×
Best way to learn
"Cant Stop"
Autoscroll
slow
fast
+/-
esc
set tempo
stop
Difficulty
intermediate
I didn't tab this I only expanded it.  Original Tab is by DomStables

¬¬¬Intro 1
G|-----------------|
D|-----------------|
A|-777777777777777-|
E|-----------------|gradually getting louder… by the seventh time you should be playing
as loud as possible ;)
Intro 2
G|-----------------|
D|-----------------|
A|77777777---------|
E|--------00000000-|
  SSSSSSSSSSSSSSSS

Wait…then…
Verse (slap)
G|---7-9-----7—9---x--|---7-9-----7—9----x--|
D|--------------------|---------------------|
A|7------7-7—-x—x----7|-5-----5-5---x—x-----|
E|--------------------|--------------------5|
  S  P P S S PSPS  P S  S P P S S P SPS  P S
G|--------------------|------------------------|
D|---9-9-----9--9--x--|---10-10-----10—10---x--|
A|--------------------|------------------------|
E|-7-----7-7--x--x---7|-8-------8-8---x---x---8|
   S P P S S PS PS P S  S  P  P S S  PS P S P S

Verse (slap)
G|---7-9-----7—9---x--|---7-9-----7—9----x--|
D|--------------------|---------------------|
A|7------7-7—-x—x----7|-5-----5-5---x—x-----|
E|--------------------|--------------------5|
  S  P P S S PSPS  P S  S P P S S P SPS  P S
G|--------------------|------------------------|
D|---9-9-----9--9--x--|---10-10-----10—10---x--|
A|--------------------|------------------------|
E|-7-----7-7--x--x---7|-8-------8-8---x---x---8|
   S P P S S PS PS P S  S  P  P S S  PS P S P S

Verse (slap)
G|---7-9-----7—9---x--|---7-9-----7—9----x--|
D|--------------------|---------------------|
A|7------7-7—-x—x----7|-5-----5-5---x—x-----|
E|--------------------|--------------------5|
  S  P P S S PSPS  P S  S P P S S P SPS  P S
G|--------------------|------------------------|
D|---9-9-----9--9--x--|---10-10-----10—10---x--|
A|--------------------|------------------------|
E|-7-----7-7--x--x---7|-8-------8-8---x---x---8|
   S P P S S PS PS P S  S  P  P S S  PS P S P S

1st Chorus
G|-----------------|----------------------|
D|----x-9-10-12----|-9----9---10---0-10-12|
A|-10--------------|---12---12------------|
E|-----------------|----------------------|

G|-----------------|------------------------|
D|----x-9-10-12----|-9----9----10---12/14-12|
A|-10--------------|---12---12--------------|
E|-----------------|------------------------|

G|-----------------|---12-------------------|
D|----x-9-10-12----|-9----9h10--------10h12-|
A|-10--------------|------------------------|
E|-----------------|------------------------|

G|-----------------|---------------|
D|-----9-10-12-----|-9---10--------|
A|-10--------------|---------------|
E|-----------------|---------------|

Verse (slap)
G|---7-9-----7—9---x--|---7-9-----7—9----x--|
D|--------------------|---------------------|
A|7------7-7—-x—x----7|-5-----5-5---x—x-----|
E|--------------------|--------------------5|
  S  P P S S PSPS  P S  S P P S S P SPS  P S
G|--------------------|------------------------|
D|---9-9-----9--9--x--|---10-10-----10—10---x--|
A|--------------------|------------------------|
E|-7-----7-7--x--x---7|-8-------8-8---x---x---8|
   S P P S S PS PS P S  S  P  P S S  PS P S P S

Verse (slap)
G|---7-9-----7—9---x--|---7-9-----7—9----x--|
D|--------------------|---------------------|
A|7------7-7—-x—x----7|-5-----5-5---x—x-----|
E|--------------------|--------------------5|
  S  P P S S PSPS  P S  S P P S S P SPS  P S
G|--------------------|------------------------|
D|---9-9-----9--9--x--|---10-10-----10—10---x--|
A|--------------------|------------------------|
E|-7-----7-7--x--x---7|-8-------8-8---x---x---8|
   S P P S S PS PS P S  S  P  P S S  PS P S P S

Verse (slap)
G|---7-9-----7—9---x--|---7-9-----7—9----x--|
D|--------------------|---------------------|
A|7------7-7—-x—x----7|-5-----5-5---x—x-----|
E|--------------------|--------------------5|
  S  P P S S PSPS  P S  S P P S S P SPS  P S
G|--------------------|-------------9-7-------|
D|---9-9-----9--9--x--|---10-10---------9-7---|
A|--------------------|---------------------10|
E|-7-----7-7--x--x---7|-8-------8-8-----------|
   S P P S S PS PS P S  S  P  P S S  PS P S P S

Verse (slap)
G|---7-9-----7—9---x--|---7-9-----7—9----x--|
D|--------------------|---------------------|
A|7------7-7—-x—x----7|-5-----5-5---x—x-----|
E|--------------------|--------------------5|
  S  P P S S PSPS  P S  S P P S S P SPS  P S
G|--------------------|------------------------|
D|---9-9-----9--9--x--|---10-10-----10—10---x--|
A|--------------------|------------------------|
E|-7-----7-7--x--x---7|-8-------8-8---x---x---8|
   S P P S S PS PS P S  S  P  P S S  PS P S P S

2nd Chorus
G|-----------------|-----------------------------|
D|----x-9-10-12----|-9----9----10----10-x-0-10-12|
A|-10--------------|---12---12-------------------|
E|-----------------|-----------------------------|

G|-----------------|------------------------------|
D|----x-9-10-12----|-9----9----10----12/14-12-10-9|
A|-10--------------|---12---12--------------------|
E|-----------------|------------------------------|

G|-----------------|----------------------------|
D|----x-9-10-12----|-9----9-12-10-------10-9----|
A|-10--------------|---12--------------------12-|
E|-----------------|----------------------------|


G|-----------------|---------------|
D|----x-9-10-12----|-9---10--------|
A|-10--------------|---------------|
E|-----------------|---------------|

Bridge
G|---9-9---|-14---------|---------|------------|
D|---------|----12-0-12-|---9-9---|-12-10---10-|
A|-7-----7-|------------|---------|------------|
E|---------|------------|-7-----7-|-------8----| (1sttime.)

Variation
G|------------------|
D|-12-10---10-------|
A|------------------|
E|-------8-----10-11| (2nd and 4th time)

G|------------------------|
D|-12-10---10-------------|
A|-------------10h12------|
E|-------8-----------10h11| (3rd time)

Solo
G|---7-9-----7—9---x--|---7-9-----7—9----x--|
D|--------------------|---------------------|
A|7------7-7—-x—x----7|-5-----5-5---x—x-----|
E|--------------------|--------------------5|
  S  P P S S PSPS  P S  S P P S S  PSPS  P S
G|--------------------|------------------------------|
D|---9-9-----9--9--x--|---10-10----------12----------|
A|--------------------|------------12-14-----10-12-10|
E|-7-----7-7--x--x---7|-8-------8--------------------|
   S P P S S PS PS P S  S  P  P S

G|---7-9-----7—9---x--|---7-9-----7-9----x--|
D|--------------------|---------------------|
A|7------7-7—-x—x----7|-5-----5-5--x—x------|
E|--------------------|--------------------5|
  S  P P S S PSPS  P S  S P P S S  PSPS   PS

G|--------------------|------------12--12-----14---14-|
D|---9-9-----9--9--x--|---10-10-----------------------|
A|--------------------|-----------x---x------x----x---|
E|-7-----7-7--x--x---7|-8-------8----------10---------|
   S P P S S PS PS P S  S  P  P S S

Verse (slap)
G|---7-9-----7—9---x--|---7-9-----7—9----x--|
D|--------------------|---------------------|
A|7------7-7—-x—x----7|-5-----5-5---x—x-----|
E|--------------------|--------------------5|
  S  P P S S PSPS  P S  S P P S S P SPS  P S
G|--------------------|------------------------|
D|---9-9-----9--9--x--|---10-10-----10—10---x--|
A|--------------------|------------------------|
E|-7-----7-7--x--x---7|-8-------8-8---x---x---8|
   S P P S S PS PS P S  S  P  P S S  PS P S P S

Verse (slap)
G|---7-9-----7—9---x--|---7-9-----7—9----x--|
D|--------------------|---------------------|
A|7------7-7—-x—x----7|-5-----5-5---x—x-----|
E|--------------------|--------------------5|
  S  P P S S PSPS  P S  S P P S S P SPS  P S
G|--------------------|------------------------|
D|---9-9-----9--9--x--|---10-10-----10—10---x--|
A|--------------------|------------------------|
E|-7-----7-7--x--x---7|-8-------8-8---x---x---8|
   S P P S S PS PS P S  S  P  P S S  PS P S P S¬¬¬

Verse (slap)
G|---7-9-----7—9---x--|---7-9-----7—9----x--|
D|--------------------|---------------------|
A|7------7-7—-x—x----7|-5-----5-5---x—x-----|
E|--------------------|--------------------5|
  S  P P S S PSPS  P S  S P P S S P SPS  P S
G|--------------------|------------------------|
D|---9-9-----9--9--x--|---10-10-----10—10---x--|
A|--------------------|------------------------|
E|-7-----7-7--x--x---7|-8-------8-8---x---x---8|
   S P P S S PS PS P S  S  P  P S S  PS P S P S

Verse (slap)
G|---7-9-----7—9---x--|---7-9-----7—9----x--|
D|--------------------|---------------------|
A|7------7-7—-x—x----7|-5-----5-5---x—x-----|
E|--------------------|--------------------5|
  S  P P S S PSPS  P S  S P P S S P SPS  P S
G|--------------------|------------------------|
D|---9-9-----9--9--x--|---10-10-----10—10---x--|
A|--------------------|------------------------|
E|-7-----7-7--x--x---7|-8-------8-8---x---x---8|
   S P P S S PS PS P S  S  P  P S S  PS P S P S
Suggest correction
Give kudos to tab author, rate the tab!
1 2 3 4 5
comments
print report bad tab
guest
You may want to rate the tab now too:
select rating
Wanna post a correction for this tab? Suggest correction