Oops, an error
Loading. Please wait.
15,474 views 3 this week
5 commentsread comments
1 2 3 4 5
x 6
add to favorites
launch autoscroll
font size
0
reset
how to read this tab
guitar tuner
Autoscroll
slow
fast
+/-
esc
set tempo
stop
Help us to improve Ultimate-Guitar.com Take our survey!
×
Author
ARTIST:Red Hot Chili Peppers
 SONG:Cant stop
 ALBUM:By The Way (What a album)
 TABBED: greenday_rhcp2002@yahoo.co.uk
 

 Intro
e|----------------------|
B|----------------------|
G|----------------------|
D|----------------------|
A|--5-7-5-7-5-7-5-7-5-7-| Just repeat
E|----------------------|


 Main/kick ass riff how i play it   REPEAT x5
e|-----------------------------------------------------------|
B|-----------------------------------------------------------|
G|----79-----79-----79---------79-----79-----79-----79----79-|
D|----------------0------000---------------------------------|
A|-77----777-----7----------------5--------------------------|
E|---------------------------------7-----777----778----888---|


 Little guitar part before Chorus
e|--------|
B|-888888-|
G|--------| Played by 2nd guitar
D|--------|
A|--------|
E|--------|

 Chorus x 2
e|-------|-------|-------|----------|
B|-8-8-8-|-7-7-7-|-------|----------|
G|-9-9-9-|-7-7-7-|-7-7-7-|-9--9--9--|  ^=STANDS 4 UP STROKE
D|-9-9-9-|-7-7-7-|-9-9-9-|-10-10-10-|    REST ARE DOWNSTROKES
A|-7-7-7-|-5-5-5-|-9-9-9-|-10-10-10-|
E|-------|-------|-7-7-7-|-8--8--8--| 
     ^       ^       ^        ^ 
THEN DO THIS

 MAIN RIFF x 4


 GUITAR 2 PLAYS RIFF SAME AGAIN


 CHORUS x 2



 Inturlude X2
e|-12-12-12-12--7-7-7-7--9-9-9-9--8-8-8-8-|
B|-12-12-12-12--7-7-7-7--9-9-9-9--8-8-8-8-|
G|-12-12-12-12-----------9-9-9-9--9-9-9-9-|
D|----------------------------------------|
A|----------------------------------------|
E|----------------------------------------|

 Inturlude Part 2  x2
e|-12-12-12-12--10-10-10-10--7-7-7-7------------|
B|-12-12-12-12--10-10-10-10--7-7-7-7--8-8-8-8-8-|
G|-12-12-12-12----------------------------------|
D|----------------------------------------------|
A|----------------------------------------------|
E|----------------------------------------------|


 Solo x1
e|--12--12--10--10----------------12--15--12--12--10--10--------------|
B|-------------------12--12--8--8-------------------------12--12--8--8|
G|--------------------------------------------------------------------|
D|--------------------------------------------------------------------|
A|--------------------------------------------------------------------|
E|--------------------------------------------------------------------|

 MAIN RIFF x4

 END

  
 Notes: I know the intulude and solo isn't perfect but they are close
        to right. Listen to cd for strumming and ring out of notes
        not hard to figure out.
        IF YOU DON'T HAVE BY THE WAY ALREADY GO AND BUY IT NOW!!!
        ANY comments send to email:greenday_rhcp2002@yahoo.co.uk
Suggest correction
comments
print report bad tab
5 comments total. Showing first comments.
0 reply
jasonr332 10 Mar 25, 2003 12:00 AM

Hey, I made a correction for the version 3 about the solo, I belive it's correct so check it out and try it yourself and see.

0 reply
greenday2003 837 Jun 01, 2003 12:00 AM

Solo
|12-12-10-10-----------12-15\10---------
|-----------12-12-8-8---------17-12-12-8
|---------------------------------------
|---------------------------------------
|---------------------------------------
|---------------------------------------

I JUST CORRECTED the solo this is a better way to play it

0 reply
free les paul59 10 Mar 22, 2004 12:00 AM

the stranger is right. it sounds much better

guest
You may want to rate the tab now too:
select rating
Wanna post a correction for this tab? Suggest correction