Oops, an error
Loading. Please wait.

Circle Of The Noose bass

778 views 3 this week
3 commentsread comments
1 2 3 4 5
x 3
add to favorites
×
Save as Personal and add changes to this tab that will be seen only by you. Learn more ›
×
You can save this tab as Personal to edit and correct it or add notes. All changes will be seen only by you. Learn more »
launch autoscroll
font size
0
reset
guitar tuner
edit
Autoscroll
slow
fast
+/-
esc
set tempo
stop
Author
Difficulty
RED HOT CHILI PEPPERS
"Circle of the Noose"


Tuning: Standard
Tempo: 96 bpm

AUTHOR'S NOTE: 
This tab is for standard tuning. The intro requires some very wide stretches.
These can be avoided by tuning up to F and playing open strings wherever possible.
I do not know what tuning was used for the recording, so corrections are welcome.


INTRO
   S  S  S  S  S  S  S  S  S  S  S  S  S  S  E     S  S  S  S  S  S  S  S  S  S  S  S  S  S  E
|-19-------17-------15-------15-------17-15-----|-19-------17-------15-------15-------17-15-----|
|----15-------15-------15-------15--------------|----15-------15-------15-------15--------------|
|-------13-------13-------13-------13-------13--|-------13-------13-------13-------13-------13--|
|-----------------------------------------------|-----------------------------------------------|


   S  S  S  S  S  S  S  S  S  S  S  S  S  S  S  S    S  S  S  S  S  S  S  S  S  S  S  S  S  S  E
|-13-------13-------13-------13-------13-------13-|-----------------------------------------------|
|-------------------------------------------------|-13-15----15-------15-------15-------15--------|
|----13-13----13-13----13-13----13-13----13-13----|-------13----13-13----13-13----13-13----13-13--|
|-------------------------------------------------|-----------------------------------------------|


VERSES
   E.  E.  E.  E.  E  E    E.  E.  E.  E.  Q     E.  E.  E.  E.  E  E    E.  E. E.  E. Q
|-----------------------|-----12--------------|-----------------------|--------------------|
|-12--12--13--12--12-13-|-15------12--13--12--|-----13----------------|------------10--8---|
|-----------------------|---------------------|-11------10--10--10-10-|-11--10--8----------|
|-----------------------|---------------------|-----------------------|--------------------|


CHORUS
  E. E. H    +E    E. E. H    +E    E. E. H    +E    E. E. H    +E
|----------------|----------------|----------------|----------------|
|----------------|----------------|----------------|----------------|
|----------------|----4-----------|----------------|----4-----------|
|-4--4--6----(6)-|-4-----6----(6)-|-4--4--6----(6)-|-4-----6----(6)-|


BRIDGE
  E. E. H    +E    E. E. H    +E    E. E. H    +E    E E E E E E E E
|----------------|----------------|----------------|-----------------|
|----------------|----------------|----------------|-----------------|
|----4--6----(6)-|-6--4-----------|----------------|-----------------|
|-4--------------|-------6----(6)-|-6--4--2----(2)-|-1-1-1-1-1-1-1-1-|


Duration Legend
---------------
W - whole; H - half; Q - quarter; E - 8th; S - 16th; T - 32nd; X - 64th; a - acciaccatura
+ - note tied to previous; . - note dotted; .. - note double dotted
Uncapitalized letters represent notes that are staccato (1/2 duration)
Irregular groupings are notated above the duration line
Duration letters will always appear directly above the note/fret number it represents the
duration for.  Duration letters with no fret number below them represent rests.  Multi-
bar rests are notated in the form Wxn, where n is the number of bars to rest for.  Low
melody durations appear below the staff

Misc Legend
-----------
 |  - bar
||  - double bar
||o - repeat start
o|| - repeat end
*|  - double bar (ending)
 :  - bar (freetime)
 $  - Segno
 &  - Coda
Tempo markers -  = BPM(8/16=s8/s16), where s8 = swing 8ths, s16 = swing 16ths

            
            
Suggest correction
Creating personal tab
Creating personal tab
You can edit any tab online and save it as your Personal.

You can edit, replace or remove any tab part or add personal notes – all changes will be seen only by you.

Personal tabs can be accessed anytime from any device, even offline.
Learn more »
Give kudos to tab author, rate the tab!
1 2 3 4 5
comments
print report bad tab
3 comments total.
0 reply
LordAhrim1536 88 Feb 10, 2016 03:10 PM

This is not correct

0 reply
rodrigofdp2 10 Feb 25, 2016 01:00 AM

bad one. im trying to tab it

0 reply
sashki 2,894 Feb 25, 2016 07:33 AM

Please be more constructive with your feedback. Is it in the wrong key? Is at least some part of it correct?

guest
You may want to rate the tab now too:
select rating
Wanna post a correction for this tab? Suggest correction