Oops, an error
Loading. Please wait.

Coffee Shop Bass

version 2
version 2

Whole song

  • This tab is different because it is as close to the origional that it can get.

Interactive

148 views 6 this week
no commentswrite comment
1 2 3 4 5
3 more votes to show rating
add to favorites
launch autoscroll
font size
0
reset
guitar tuner
backing track
0:00
0:00
×
Best way to learn
"Coffee Shop"
Autoscroll
slow
fast
+/-
esc
set tempo
stop
Author
Difficulty
About this tab version
This tab is different because it is as close to the origional that it can get. Was this info helpful? Yes No
[Intro - Wah Pedal]
G|-21-21-21-21-21-21-21-21-21-21-21-21-21-21-21-21-|
D|-------------------------------------------------|
A|-------------------------------------------------|
E|-------------------------------------------------|(x4)

[Verse]
G|-----------------------------|-----------------2---x-------|
D|------2---2------2---2---2---|------2---2--------------5---|
A|-----------------------------|---------------0---x---------|
E|-0--x---x---0--x---x---x---0-|-0--x---x---0----------3---3-|

[Chorus]
G|-------------------------------------|-------------------------------------|
D|---------x-------x------2----2---2---|---------x-------x------2----2---2---|
A|-------------------------------------|-------------------------------------|
E|-5--5--x---3-3-x---0--0----0---x---0-|-5--5--x---8-8-x---0--0----0---x---0-|

G|---------------------------------------------------------------------------|
D|---------x-------x---------x--------------x--------------------------------|
A|--------------------------------------------3-3----------------------------|
E|-5--5--x---3-3-x---2--2--x---3-3--2--2--x---------5----5--5--5--5--5--5--5-|

[Interlude - Part 1 - Wah Pedal]
G|------9---x-------x---x-------x-----------7p6h7p6h7p6h7p6-|
D|------------7h9-----------------------5-------------------|
A|----x---x-------x---x---5h7-x---5h7-x---x-----------------|
E|-0--------------------------------------------------------|

G|------9---x-------x---12h14----14b--12--12\11-------------|
D|------------7h9-------------------------------12----------|
A|----x---x-------x---x-------------------------------------|
E|-0--------------------------------------------------------|

G|-7h9-----6h7p6h7----------------------x--x-----x--x-----x-|
D|-----------------5h7p5h7----------------------------------|
A|-------------------------5h7p5h7-5h7-x--x-5h7-x--x-5h7-x--|
E|----------------------------------------------------------|

G|-----------6h7--x--x---7--x-------x--x-------x-------x--x-|
D|-------5-------------5-------------------------7h9--------|
A|-5h7-x---x----x--x------x---5h7-x--x---5h7-x-------x--x---|
E|----------------------------------------------------------|

[Interlude - Part 2 - Wah Pedal]
G|------9---7---6---7---x-------------------|------9---7---6---7---x----------7-6-------|
D|----------------------------5---7---9/14\-|------------------------------6------7p5p0-|
A|-7--x---x---x---x---x---7-x---x---x-------|-7--x---x---x---x---x---4--5------x--------|
E|------------------------------------------|-------------------------------------------|

G|------9---7---6---7---x---------12/13--14-|------9---7---6---7---x--------------------|
D|--------------------------------11/12--12-|-------------------------------------------|
A|-7--x---x---x---x---x---------------------|-7--x---x---x---x---x---7--11---10---9---8-|
E|------------------------3---0-------------|-------------------------------------------|

G|------------------------------------------------------------------------------------------------|
D|------------------------------------------------------------------------------------------------|
A|------------------------------------------------------------------------------------------------|
E|-0--0--0--0--0--0--0--0--0--0--0--0--0--0--0--0--0--0--0--0--0--0--0--0--0--0--0--0--0--0--0--0-|

[Outro]
G|-------------------------------------------------------------------|
D|------------5-----------------------5--------5-7-5-/9\-7-5-7-5-----|
A|------5h7-7---7--7-5h7-5------5h7-7---7--7-7-------------------7-5-|
E|-0--0--------------------0--0--------------------------------------|

                                                                 b  b   b   b   b
G|----7---7h9-7---7h9-7---7h9-9-9-9-/12--12-12--12-12--------12--14-14--14--14--14-|
D|-/9---9-------9-------9------------------------------12h14-----------------------|
A|---------------------------------------------------------------------------------|
E|---------------------------------------------------------------------------------|

           b  b   b   b   b
G|-12--12--14-14--14--14--14--12---------------------------------------------12----|
D|---14-------------------------14-14-12h14-14--12h14-14-14--12-----------------14-|
A|--------------------------------------------------------------14--15-15-15-------|
E|---------------------------------------------------------------------------------|

G|---------------------------------------------------------------------12----------|
D|------14------17-16-14-----------------12-------------12----12-13-14----14-12-14-|
A|-14h15--15-14-----------0-14--12-13-14----14-12-13-14----14----------------------|
E|---------------------------------------------------------------------------------|

G|-------------------------12----------------------------------12-12h14--14--14-14-|
D|----------12----12-13-14----14-12-14----------------12-13-14---------------------|
A|-12-13-14----------------------------------12-13-14------------------------------|
E|---------------------------------------------------------------------------------|

G|-/19--19-18--18-16--16-----------------|
D|-----------------------17--17-16-16-14-|
A|---------------------------------------|
E|---------------------------------------|

G|-----------------------------|-----------------2---x-------|
D|------2---2------2---2---2---|------2---2--------------5---|
A|-----------------------------|---------------0---x---------|
E|-0--x---x---0--x---x---x---0-|-0--x---x---0----------3---3-|(x2)


************************************

| x  Dead note
| h  Hammer-on
| p  Pull-off
| b  Bend
| \  Slide down
| /  Slide up

************************************
Suggest correction
Give kudos to tab author, rate the tab!
1 2 3 4 5
comments
print report bad tab
guest
You may want to rate the tab now too:
select rating
Wanna post a correction for this tab? Suggest correction