Oops, an error
Loading. Please wait.
We have an official Dani California tab made by UG professional guitarists. Check out the tab »
×
11,051 views 18 this week
3 commentsread comments
1 2 3 4 5
x 3
add to favorites
×
Save as Personal and add changes to this tab that will be seen only by you. Learn more ›
×
You can save this tab as Personal to edit and correct it or add notes. All changes will be seen only by you. Learn more »
launch autoscroll
font size
0
reset
how to read this tab
guitar tuner
backing track
0:00
0:00
edit
Autoscroll
slow
fast
+/-
esc
set tempo
stop
Author
-------------------------------------------------------------------------------
                             Dani California - Red hot chili peppers
-------------------------------------------------------------------------------
Tabbed by:mostly autumn
Email:d9009@hotmail.com

intro/ Verse

e|-----0-----3-----2-----0-----|
B|-----1-----2-----3-----1-----|
G|-----2-----0-----2-----2-----|
D|-----2-----0-0-0-0-----2-----|      X 9
A|-0-0-0-----2-------0-0-0-----|
E|-------3-3-3-----------------|

THEN leading up to the chourus...

e|-----0-----3-------------------------------------|
B|-----1-----2-------------------------------------|
G|-----2-----0-------------------------------------|
D|-----2-----0--7--7--7-7-7-7-7-7-7-7--------------|
A|-0-0-0-----2--5--5--5-5-5-5-5-5-5-5--------------|
E|-------3-3-3-------------------------------------|

Chourus

e|------------------------------------------|
B|------------------------------------------|
G|------------5-5--7-7-7-7-7----------------|
D|-3-3-3-3-3--5-5--7-7-7-7-7--5-5-----------|     X 3
A|-3-3-3-3-3--3-3--5-5-5-5-5--5-5-----------|
E|-1-1-1-1-1------------------3-3-----------|

THEN to finish of the chourus...

e|--------------------------------------------------|
B|--------------------------------------------------|
G|------------5-5--5/7-7---5/7-7---5/7-7---5/7-7----|
D|-3-3-3-3-3--5-5--5/7-7---5/7-7---5/7-7---5/7-7----|
A|-3-3-3-3-3--3-3--3/5-5---3/5-5---3/5-5---3/5-5----|
E|-1-1-1-1-1----------------------------------------|

Then there is a little riff after the chourus...

E|--------------------------------------------------------------------|
B|--------------------------------------------------------------------|
G|--------------------------------------------------------------------|
D|---10b---9b---12b---14b---10b---9b---12b---19-19-19-19-19-19-19-19--|
A|--------------------------------------------------------------------|
E|--------------------------------------------------------------------|

Verse

e|-----0-----3-----2-----0-----|
B|-----1-----2-----3-----1-----|
G|-----2-----0-----2-----2-----|
D|-----2-----0-0-0-0-----2-----|      X 7
A|-0-0-0-----2-------0-0-0-----|
E|-------3-3-3-----------------|

THEN leading up to the chourus...

e|-----0-----3-------------------------------------|
B|-----1-----2-------------------------------------|
G|-----2-----0-------------------------------------|
D|-----2-----0--7--7--7-7-7-7-7-7-7-7--------------|
A|-0-0-0-----2--5--5--5-5-5-5-5-5-5-5--------------|
E|-------3-3-3-------------------------------------|

Chourus

e|------------------------------------------|
B|------------------------------------------|
G|------------5-5--7-7-7-7-7----------------|
D|-3-3-3-3-3--5-5--7-7-7-7-7--5-5-----------|     X 3
A|-3-3-3-3-3--3-3--5-5-5-5-5--5-5-----------|
E|-1-1-1-1-1------------------3-3-----------|

THEN to finish of the chourus...

e|--------------------------------------------------|
B|--------------------------------------------------|
G|------------5-5--5/7-7---5/7-7---5/7-7---5/7-7----|
D|-3-3-3-3-3--5-5--5/7-7---5/7-7---5/7-7---5/7-7----|
A|-3-3-3-3-3--3-3--3/5-5---3/5-5---3/5-5---3/5-5----|
E|-1-1-1-1-1----------------------------------------|

Before the next verse there is another little riff...

e|---------7------------7------------7---|
B|---------7------------7------------7---|
G|---------7------------7------------7---|
D|---------9------------9------------9---|
A|---------------------------------------|
E|--7--7---------7--7---------7--7-------|

i'm nt sure how many times you play that but just play to the song!


Verse

e|-----0-----3-----2-----0-----|
B|-----1-----2-----3-----1-----|
G|-----2-----0-----2-----2-----|
D|-----2-----0-0-0-0-----2-----|      X 3
A|-0-0-0-----2-------0-0-0-----|
E|-------3-3-3-----------------|

THEN leading up to the chourus...

e|-----0-----3-------------------------------------|
B|-----1-----2-------------------------------------|
G|-----2-----0-------------------------------------|
D|-----2-----0--7--7--7-7-7-7-7-7-7-7--------------|
A|-0-0-0-----2--5--5--5-5-5-5-5-5-5-5--------------|
E|-------3-3-3-------------------------------------|

Chourus

e|------------------------------------------|
B|------------------------------------------|
G|------------5-5--7-7-7-7-7----------------|
D|-3-3-3-3-3--5-5--7-7-7-7-7--5-5-----------|     X 3
A|-3-3-3-3-3--3-3--5-5-5-5-5--5-5-----------|
E|-1-1-1-1-1------------------3-3-----------|

THEN to finish of the chourus...

e|--------------------------------------------------|
B|--------------------------------------------------|
G|------------5-5--5/7-7---5/7-7---5/7-7---5/7-7----|
D|-3-3-3-3-3--5-5--5/7-7---5/7-7---5/7-7---5/7-7----|
A|-3-3-3-3-3--3-3--3/5-5---3/5-5---3/5-5---3/5-5----|
E|-1-1-1-1-1----------------------------------------|

then do all the chourus again

Solo

e|-------------------------------------------------------------------------|
B|-------------------------------------------------------------------------|
G|----------10-------------------------------------------------------------|
D|------10------12---------------------------------------------------------|
A|--12------------------10p8-10p8-10p8-10p8------------------3/5-----------|
E|------------------------------------------10-----/5--1--1----------------|

e|-------------------------------------------------------------------------|
B|-------------------------------------------------13-15-------------------|
G|----------10--------------------------------14---------------------------|
D|------10------12------10----10----10--12---------------------------------|
A|--12---------------12----12----12----------------------------------------|
E|-------------------------------------------------------------------------|

e|-------------------------------------------------------------------------|
B|-------------------------------------------------------------------------|
G|----------10-------------------------------------------------------------|
D|------10------12---------------------------------------------------------|
A|--12------------------10p8-10p8-10p8-10p8------------------3/5-----------|
E|------------------------------------------10-----/5--1--1----------------|

e|-------------------------------------------------------------------------|
B|-----------------------------------------------13-15---------------------|
G|----------10--------------------------------14---------------------------|
D|------10------12------10----10----10--12---------------------------------|
A|--12---------------12----12----12----------------------------------------|
E|-------------------------------------------------------------------------|

e|-------------------------------------------------------------------------|
B|-----13----15-13----15-13----15-13----15-13----15-13---------------------|
G|--14----14-------14-------14-------14-------14-------14------------------|
D|-------------------------------------------------------------------------|
A|-------------------------------------------------------------------------|
E|-------------------------------------------------------------------------|

e|-------------------------------------------------------------------------|
B|-------------------------------------------------------------------------|
G|----------10-------------------------------------------------------------|
D|------10------12------10----10----10---------------------10--------------|
A|--12---------------12----12----12-----108-----8---10/12------1210p8------|
E|-------------------------------------------10-------------------------10-|

E|-------------------------------------------------------------------------|
B|-------------------------------------------------13-15^------------------|
G|----------10---------------------------------14--------------------------|
D|------10------12------10----10----10--12---------------------------------|
A|--12---------------12----12----12----------------------------------------|
E|-------------------------------------------------------------------------|

E|-------------------------------------------------------------------------|
B|-------------------------------------------------------------------------|
G|------------10-----------------------------------------------------------|
D|--------10------12-------------------------------------------------------|
A|---12-----------------10p8-10p8-10p8-10p8---------------------3/5--------|
E|------------------------------------------10-10-----/5--1--1-------------|

E|-------------------------------------------------------------------------|
B|--------10h13p10--------10h13p10--------10h13p10--------10h13p10---------|
G|--12b14-----------12b14-----------12b14-----------12b14------------------|
D|-------------------------------------------------------------------------|
A|-------------------------------------------------------------------------|
E|-------------------------------------------------------------------------|

  PLAY THE LAST BAR TWICE
  

e|-------13--15-15-15------13--15-15-15------------------------------------|
B|--/15----------------15--------------------------------------------------|
G|-------------------------------------------------------------------------|
D|-------------------------------------------------------------------------|
A|-------------------------------------------------------------------------|
E|-------------------------------------------------------------------------|
  
   PLAY THE LAST BAR TWICE

e|--13h15------------------------------------------------------------------|
B|--------15-1310---------10---------10h13p10---------10h13p10---------13--|
G|------------------12b14------12b14------------12b14------------12b14-----|
D|-------------------------------------------------------------------------|
A|-------------------------------------------------------------------------|
E|-------------------------------------------------------------------------|

e|------------------------|
B|------------------------|
G|--12b14---r12p10--------|
D|------------------12~---|
A|------------------------|
E|------------------------|


| /  slide up
| \  slide down
| h  hammer-on
| p  pull-off
| ~  vibrato
| +  harmonic
| x  Mute note
Suggest correction
Creating personal tab
Creating personal tab
You can edit any tab online and save it as your Personal.

You can edit, replace or remove any tab part or add personal notes – all changes will be seen only by you.

Personal tabs can be accessed anytime from any device, even offline.
Learn more »
Give kudos to tab author, rate the tab!
1 2 3 4 5
comments
print report bad tab
3 comments total.
0 reply
axe_man 10 Jan 08, 2007 07:06 AM

thhis is o.k but the bits after the chorus as u put it are unison bends n the verses are those chord thingies where u flick ur thumb over the top

0 reply
abwell 20 Jan 08, 2007 05:23 PM

first of all this song uses barre chords, second, it's a D minor in the beginning rather than a D major

0 reply
sicklicks95 61 Jan 15, 2007 01:02 PM

yeah it is barre chords, not bad though

guest
You may want to rate the tab now too:
select rating
Wanna post a correction for this tab? Suggest correction