Oops, an error
Loading. Please wait.

Dani California Tab

version 5
419,851 views 459 this week
3 commentsread comments
1 2 3 4 5
x 5
add to favorites
launch autoscroll
font size
0
reset
how to read this tab
guitar tuner
Autoscroll
slow
fast
+/-
esc
set tempo
stop
Help us to improve Ultimate-Guitar.com Take our survey!
×
Author
Difficulty
intermediate
[Verse]

e|----------------|----------------|
B|-----5-------3--|-----6-------5--|
G|-----5-------4--|-----7-------5--|
D|-----7-------5--|-----7-------7--|2x
A|----------------|-5-5------------|
E|-5-5—--x-3-3----|--------5-5-----|


e|----------------|----------------|
B|-----5-------3--|-----6-------5--|
G|-----5-------4--|-----7-------5--|
D|-----7-------5--|-----7-------7--|2x
A|----------------|-5-5------------|
E|-5-5—--x-3-3----|--------5-5-----|

(with wah wah effect... Wh-10 ibanez variation during verse)

e|-------------------------|--------------------|
B|-------------------------|--------------------|
G|-----5h7p5--------4h5p4--|------7------x----5-|
D|-7--------7—-x-5-------5-|-0-----------x-5h7--|
A|-------------------------|--------------------|
E|-------------------------|--------------------|


e|-------------------------|-----------------5--|
B|-------------------------|-----------------5--|
G|-----5h7p5--------4h5p4--|------7------x---5--|
D|-7--------7—-x-5-------5-|-0-----------x------|
A|-------------------------|--------------------|
E|-------------------------|--------------------|

(same as 1st verse)

e|-------------------------|--------------------|
B|-------------------------|--------------------|
G|-----5h7p5--------4h5p4--|------7------x----5-|
D|-7--------7—-x-5-------5-|-0-----------x-5h7--|
A|-------------------------|--------------------|
E|-------------------------|--------------------|

e|-------------------------|-------------------|
B|-------------------------|-6-6-6-6-6-6-6-6-6-|
G|-----5h7p5--------4h5p4--|-7-7-7-7-7-7-7-7-7-|
D|-7--------7—-x-5-------5-|-7-7-7-7-7-7-7-7-7-| (last verse to chorus)
A|-------------------------|-5-5-5-5-5-5-5-5-5-|
E|-------------------------|-------------------|


[Chorus]

e|-------------------------------------|
B|-------------------------------------|
G|-----------5-5-xx-5/7-7-7-7x7--------|
D|-3-3-3-xx--5-5-xx-5/7-7-7-7x7--5-5-5-|
A|-3-3-3-xx--3-3-xx-3/5-5-5-5x5--5-5-5-|
E|-1-1-1-xx----------------------3-3-3-|x3


e|--------------------------------|--------------------|
B|--------------------------------|--------------------|
G|-----------5-5-xx-5/7-7-7-7x7x7-|-x7x7-x7x7----------|
D|-3-3-3-xx--5-5-xx-5/7-7-7-7x7x7-|-x7x7-x7x7----------|
A|-3-3-3-xx--3-3-xx-3/5-5-5-5x5x5-|-x5x7-x5x5—(5)---(0)|
E|-1-1-1-xx-----------------------|-------------(0h3)--|


[Semi solo]
(2 guitars)

e|-8---7---10---12---|-8---7---10---17---|
B|-------------------|-------------------|
G|-9---7---10---14---|-9---7---10---14---|
D|-------------------|-------------------|
A|-------------------|-------------------|
E|-------------------|-------------------|


[During verse guitar part on top]

e|----------10--------|----------10--------|
B|-10---8--------10---|-10---8--------10---|
G|--------------------|--------------------|2x
D|--------------------|--------------------|
A|--------------------|--------------------|
E|--------------------|--------------------|

e|-------------------------|--------------------|
B|-------------------------|--------------------|
G|-----5h7p5--------4h5p4--|------7------x----5-|
D|-7--------7—-x-5-------5-|-0-----------x-5h7--|
A|-------------------------|--------------------|
E|-------------------------|--------------------|


e|-------------------------|-------------------|
B|-------------------------|-6-6-6-6-6-6-6-6-6-|
G|-----5h7p5--------4h5p4--|-7-7-7-7-7-7-7-7-7-|
D|-7--------7—-x-5-------5-|-7-7-7-7-7-7-7-7-7-|
A|-------------------------|-5-5-5-5-5-5-5-5-5-|
E|-------------------------|-------------------|


[Chorus]

e|-------------------------------------|
B|-------------------------------------|
G|-----------5-5-xx-5/7-7-7-7x7--------|
D|-3-3-3-xx--5-5-xx-5/7-7-7-7x7--5-5-5-|
A|-3-3-3-xx--3-3-xx-3/5-5-5-5x5--5-5-5-|
E|-1-1-1-xx----------------------3-3-3-|x3


e|--------------------------------|--------------------|
B|--------------------------------|--------------------|
G|-----------5-5-xx-5/7-7-7-7x7x7-|-x7x7-x7x7----------|
D|-3-3-3-xx--5-5-xx-5/7-7-7-7x7x7-|-x7x7-x7x7----------|
A|-3-3-3-xx--3-3-xx-3/5-5-5-5x5x5-|-x5x7-x5x5—(5)---(0)|
E|-1-1-1-xx-----------------------|-------------(0h3)--|


[Outro]
(mid section bit)

e|----7------7------|---7---------------|
B|----7------7------|---7---------------|
G|----7------7------|---7-------x-6-----|2x
D|------------------|-------------------|
A|------------------|-------------------|
E|------------------|-------------------|


e|----7------7------|---7---------------|
B|----7------7------|---7---------------|
G|----7------7------|---7-------x-6-----|
D|------------------|-------------------|
A|------------------|-------------------|
E|------------------|-------------------|

e|------------------|-------------------|
B|-12---------------|---12-------10-----|
G|------------------|-------------------|
D|------------------|-------------------|
A|------------------|-------------------|
E|------------------|-------------------|




e|----7------7------|---7---------------|
B|----7------7------|---7---------------|
G|----7------7------|---7---------------|
D|------------------|-------------------|
A|------------------|-------------------|
E|------------------|-------------------|

e|------------------|-------------------|
B|-12---------------|-------------------|
G|------------------|-------------------|
D|------------------|-------------------|
A|------------------|-------------------|
E|------------------|-------------------|


[Back to verse]

e|-------------------|-------------------|
B|-------------------|-------------------|
G|-9---7---10---9----|-9---7---10---14---|
D|-------------------|-------------------|
A|-------------------|-------------------|
E|-------------------|-------------------|
 
e|-------------------------|--------------------|
B|-------------------------|--------------------|
G|-----5h7p5--------4h5p4--|------7------x----5-|
D|-7--------7—-x-5-------5-|-0-----------x-5h7--|
A|-------------------------|--------------------|
E|-------------------------|--------------------|


e|-------------------------|-------------------|-------------------|
B|-------------------------|-6-6-6-6-6-6-6-6-6-|-9-9-9-9-9-9-9-9-9-|
G|-----5h7p5--------4h5p4--|-7-7-7-7-7-7-7-7-7-|-9-9-9-9-9-9-9-9-9-|
D|-7--------7—-x-5-------5-|-7-7-7-7-7-7-7-7-7-|-9-9-9-9-9-9-9-9-9-|
A|-------------------------|-5-5-5-5-5-5-5-5-5-|-7-7-7-7-7-7-7-7-7-|
E|-------------------------|-------------------|-------------------|

e|-------------------------|-13----------------|-16----------------|
B|-------------------------|-------------------|-------------------|
G|-------------------------|--==---------------|-------------------|
D|-------------------------|-------------------|-------------------|
A|-------------------------|-------------------|-------------------|
E|-------------------------|-------------------|-------------------|


[Chorus]

e|-------------------------------------|
B|-------------------------------------|
G|-----------5-5-xx-5/7-7-7-7x7--------|
D|-3-3-3-xx--5-5-xx-5/7-7-7-7x7--5-5-5-|
A|-3-3-3-xx--3-3-xx-3/5-5-5-5x5--5-5-5-|
E|-1-1-1-xx----------------------3-3-3-|x3


e|--------------------------------|--------------------|
B|--------------------------------|--------------------|
G|-----------5-5-xx-5/7-7-7-7x7x7-|-x7x7-x7x7----------|
D|-3-3-3-xx--5-5-xx-5/7-7-7-7x7x7-|-x7x7-x7x7----------|
A|-3-3-3-xx--3-3-xx-3/5-5-5-5x5x5-|-x5x7-x5x5—(5)---(0)|
E|-1-1-1-xx-----------------------|-------------(0h3)--|


[2nd chorus]

e|-------------------------------------|
B|-------------------------------------|
G|-----------5-5-xx-5/7-7-7-7x7--------|
D|-3-3-3-xx--5-5-xx-5/7-7-7-7x7--5-5-5-|
A|-3-3-3-xx--3-3-xx-3/5-5-5-5x5--5-5-5-|
E|-1-1-1-xx----------------------3-3-3-|
                                          2x
e|-------------------------------------|
B|-------------------------------------|
G|-----------12-------14---------------|
D|-------------------------------------|
A|-------------------------------------|
E|-------------------------------------|


e|-------------------------------------|
B|-------------------------------------|
G|-----------5-5-xx-5/7-7-7-7x7--------|
D|-3-3-3-xx--5-5-xx-5/7-7-7-7x7--5-5-5-|
A|-3-3-3-xx--3-3-xx-3/5-5-5-5x5--5-5-5-|
E|-1-1-1-xx----------------------3-3-3-|
 
e|-----------12-------13---------10----|
B|-10----------------------------------|
G|-------------------------------------|
D|-------------------------------------|
A|-------------------------------------|
E|-------------------------------------|


e|--------------------------------|-----------|
B|--------------------------------|-----------|
G|-----------5-5-xx-5/7-7-7-7x7x7-|-x7x7-x7x7-|
D|-3-3-3-xx--5-5-xx-5/7-7-7-7x7x7-|-x7x7-x7x7-|
A|-3-3-3-xx--3-3-xx-3/5-5-5-5x5x5-|-x5x7-x5x5-|
E|-1-1-1-xx-----------------------|-----------|
 
e|-----------12-------13----------|-17--------|
B|-10-----------------------------|-----------|
G|--------------------------------|-----------|
D|--------------------------------|-----------|
A|--------------------------------|-----------|
E|--------------------------------|-----------|


[Outro]


E|-----5-------------------------------------|                               
B|-----6-------------------------------------|
G|---5---7~----------------------------------|   
D|-7--------75p3—5p3-5p3-5p3-----------------|    
A|---------------------------5-----------/5--|
E|------------------------------/5--3--1-----|

or play up the fretboard ( on A -12 , D- 10, G-10 ....etc)   how john plays it.

E|-----5----------------------------------------|
B|-----6--------------------------------13-15~/-|
G|---5---7~--2h5p2-5p2-5p2-5p2-5/7---14---------|
D|-7--------------------------------------------|
A|----------------------------------------------|
E|----------------------------------------------|

E|-----5-------------------------------------|
B|-----6-------------------------------------|
G|---5---7~----------------------------------|
D|-7--------75p3—5p3-5p3-5p3-----------------|
A|---------------------------5-----------/5--|
E|------------------------------/5--3--1-----|

E|-----5----------------------------------------|
B|-----6--------------------------------13-15~/-|
G|---5---7~--2h5p2-5p2-5p2-5p2-5/7---14---------|
D|-7--------------------------------------------|
A|----------------------------------------------|
E|----------------------------------------------|

E|---------------------------------------------------------------|
B|------13-15-13----15-13----15-13----15-13----15-13----15-13----|
G|---14----------14-------14-------14-------14-------14-------14-|
D|---------------------------------------------------------------|
A|---------------------------------------------------------------|
E|---------------------------------------------------------------|

E|-----5----------------------------------------|
B|-----6----------------------------------------|
G|---5---7~--2h5p2-5p2-5p2-------------5--------|
D|-7-----------------------5p3---3-5/7---5p3----|
A|-----------------------------5-------------5--|
E|----------------------------------------------|

E|-----5-------------------------------------|
B|-----6-------------------------13-15b16b15-|
G|---5---7~---5---5---5-7b----14-------------|
D|-7--------7---7---7------------------------|
A|-------------------------------------------|
E|-------------------------------------------|

E|-----5-------------------------------------|
B|-----6-------------------------------------|
G|---5---7~----------------------------------|
D|-7--------75p3—5p3-5p3-5p3-----------------|
A|---------------------------5-----------/5--|
E|------------------------------/5--3--1-----|


i think this bit is with wah and fuzz effect

e|----------------------------------------------|
B|----10h13p10---10h13p10---10h13p10---10h13p10-|
G|-b12--------b12--------b12--------b12---------|played pretty fast J
D|----------------------------------------------|repeat this a few times.
A|----------------------------------------------|
E|----------------------------------------------|

e|-13h15-15-13h15-15-13h15-15-13h15-15-|
B|-------------------------------------|
G|-------------------------------------|also pretty fast
D|-------------------------------------|repeat a few times
A|-------------------------------------|
E|-------------------------------------|

e|------13---------------------------------------------|
B|-13h15--15-13-----10h13p10---10h13p10----------------|
G|---------------b12--------b12--------b12~~p10--------|
D|----------------------------------------------12-----|
A|-----------------------------------------------------|
E|-----------------------------------------------------|



************************************

| x    Dead note
| (n)  Ghost note
| h    Hammer-on
| p    Pull-off
| b    Bend
| /    Slide up
| ~    Vibrato 

************************************
Suggest correction
comments
print report bad tab
3 comments total.
0 reply
Kooldood 155 Feb 20, 2008 08:27 AM

nice, but cant anyone do one with timing

-2 reply
yr mum 10 Aug 02, 2008 07:19 PM

h8 to burst ur buble but its exactly like v5

0 reply
noahlozevski 10 Mar 23, 2015 10:57 PM

didn't like this contribution

guest
You may want to rate the tab now too:
select rating
Wanna post a correction for this tab? Suggest correction