Oops, an error
Loading. Please wait.
We have an official Dark Necessities tab made by UG professional guitarists. Check out the tab »
×
77,275 views 330 this week
7 commentsread comments
1 2 3 4 5
x 41
add to favorites
×
Save as Personal and add changes to this tab that will be seen only by you. Learn more ›
×
You can save this tab as Personal to edit and correct it or add notes. All changes will be seen only by you. Learn more »
launch autoscroll
font size
0
reset
guitar tuner
backing track
0:00
0:00
edit
Autoscroll
slow
fast
+/-
esc
set tempo
stop
Author
Difficulty
[Intro]

G|------------------------------------------------------------------------------------------------|
D|-------------------------------------------------10-10-10-10-10-10-10-10-10-10-8-8-8-8-8-8-8-8-8|   x4
A|11-11-11-11-11-11-11-11-11-11-8-8-8-8-8-8-8-8-8-8-----------------------------------------------|
E|------------------------------------------------------------------------------------------------|

[Verse] (Slapping and Popping)

G|---5-----3-5--------5-----3-5-----|
D|----------------------------------|   x4
A|3-x---3-x---------------------x-1/|
E|---------------x-3/4-x---4-x------|

G|----------------------------------|
D|---3----3-3--------6-----6-6------|
A|------------------------------x-1/|
E|1-x--1x-----1-1/4x----4x----------|

G|---5-----3-5--------5--8-7-5-----|
D|---------------------------------|
A|3-x---3-x----1x1/3-x-3-----------|
E|---------------------------------|

G|---5-----3-5--------5-----3-5-----|
D|----------------------------------|   x4
A|3-x---3-x---------------------x-1/|
E|---------------x-3/4-x---4-x------|

G|----------------------------------|
D|---3----3-3--------6-----6-6------|
A|------------------------------x-1/|
E|1-x--1x-----1-1/4x----4x----------|

G|---5-----3-5--------5--8-7-5-----|
D|---------------------------------|
A|3-x---3-x----1x1/3-x-3-----------|
E|---------------------------------|

[Chorus]

G|-----------------------------------------------------------------5-----5-5----------------3----3-3---3-|
D|6-6-6-6-6-6-6-x-6-6-6-6-5-5-3-3-3-3-3-x-3-3--3-3-6-5-3-------------------------------------------------|
A|-------------------------------------------------------6-3-3-3-3---3-3--x--3-3-3-3/1-1-1-1--1-1---1-1--|
E|-------------------------------------------------------------------------------------------------------|

G|-----------------------------------------------------------------5-----5-5----------------3----3-3---3-|
D|6-6-6-6-6-6-6-x-6-6-6-6-5-5-3-3-3-3-3-x-3-3--3-3-6-5-3-------------------------------------------------|
A|-------------------------------------------------------6-3-3-3-3---3-3--x--3-3-3-3/1-1-1-1--1-1---1-1--|
E|-------------------------------------------------------------------------------------------------------|


[Verse]

G|---5-----3-5--------5-----3-5-----|
D|----------------------------------|   x4
A|3-x---3-x---------------------x-1/|
E|---------------x-3/4-x---4-x------|

G|----------------------------------|
D|---3----3-3--------6-----6-6------|
A|------------------------------x-1/|
E|1-x--1x-----1-1/4x----4x----------|

G|---5-----3-5--------5--8-7-5-----|
D|---------------------------------|
A|3-x---3-x----1x1/3-x-3-----------|
E|---------------------------------|

[Chorus]

G|----------------------------------------------------------------------------------------3--3-3-----|
D|6-6-6-6-6-6-6-x-6-6-6-6-5-5-3-3-3-3-3-x-3-3--3-3-6-5-3---------------------------------------------|
A|-------------------------------------------------------6-3-3-3-3-3-3-x-3-3-3-3-3/1-1-1-1--1----1-1-|
E|---------------------------------------------------------------------------------------------------|

G|-----------------------------------------------------------------5-----5-5----------------3----3-3---3-|
D|6-6-6-6-6-6-6-x-6-6-6-6-5-5-3-3-3-3-3-x-3-3--3-3-6-5-3-------------------------------------------------|
A|-------------------------------------------------------6-3-3-3-3---3-3--x--3-3-3-3/1-1-1-1--1-1---1-1--|
E|-------------------------------------------------------------------------------------------------------|

[Bridge]

G|8-7-5-----------------------------6-5-3----------------------------------------------------|
D|------8-6-5-----------------------------6-4-3----------------------------------------------|
A|------------8-6-5-----------------------------6-4-3----------------------------------------|
E|------------------8-6-4-3-2/4\2/6------------------6-4-3-2/4\2/6---------------------------|

G|11-10-8------------------------------13-12-10---------------------------------------------|
D|--------11-10-8------------------------------13-12-10-------------------------------------|
A|----------------11-9-8--------------------------------13-11-10----------------------------|
E|-----------------------11-9-4/6\4/8----------------------------13-11-10-8/10--------------|

G|8-7-5-----------------------------6-5-3----------------------------------------------------|
D|------8-6-5-----------------------------6-4-3----------------------------------------------|
A|------------8-6-5-----------------------------6-4-3----------------------------------------|
E|------------------8-6-4-3-2/4\2/6------------------6-4-3-2/4\2/6---------------------------|

G|11-10-8-----------------------|
D|--------11-10-8---------------|
A|----------------11-9-8--------|
E|-----------------------11-9-8~|

[Verse]
G|---5-----3-5--------5-----3-5-----|
D|----------------------------------|   x4
A|3-x---3-x---------------------x-1/|
E|---------------x-3/4-x---4-x------|

G|----------------------------------|
D|---3----3-3--------6-----6-6------|
A|------------------------------x-1/|
E|1-x--1x-----1-1/4x----4x----------|

G|---5-----3-5--------5--8-7-5-----|
D|---------------------------------|
A|3-x---3-x----1x1/3-x-3-----------|
E|---------------------------------|

[Chorus]

G|-----------------------------------------------------------------5-----5-5----------------3----3-3---3-|
D|6-6-6-6-6-6-6-x-6-6-6-6-5-5-3-3-3-3-3-x-3-3--3-3-6-5-3-------------------------------------------------|
A|-------------------------------------------------------6-3-3-3-3---3-3--x--3-3-3-3/1-1-1-1--1-1---1-1--|
E|-------------------------------------------------------------------------------------------------------|

G|-----------------------------------------------------------------5-----5-5----------------3----3-3---3-|
D|6-6-6-6-6-6-6-x-6-6-6-6-5-5-3-3-3-3-3-x-3-3--3-3-6-5-3-------------------------------------------------|
A|-------------------------------------------------------6-3-3-3-3---3-3--x--3-3-3-3/1-1-1-1--1-1---1-1--|
E|-------------------------------------------------------------------------------------------------------|

[Verse]

G|---5-----3-5--------5-----3-5-----|
D|----------------------------------|   x4
A|3-x---3-x---------------------x-1/|
E|---------------x-3/4-x---4-x------|

G|----------------------------------|
D|---3----3-3--------6-----6-6------|
A|------------------------------x-1/|
E|1-x--1x-----1-1/4x----4x----------|

G|---5-----3-5--------5--8-7-5-----|
D|---------------------------------|
A|3-x---3-x----1x1/3-x-3-----------|
E|---------------------------------|

[Chorus]

G|-----------------------------------------------------------------5-----5-5----------------3----3-3---3-|
D|6-6-6-6-6-6-6-x-6-6-6-6-5-5-3-3-3-3-3-x-3-3--3-3-6-5-3-------------------------------------------------|
A|-------------------------------------------------------6-3-3-3-3---3-3--x--3-3-3-3/1-1-1-1--1-1---1-1--|
E|-------------------------------------------------------------------------------------------------------|

G|-----------------------------------------------------------------5-----5-5----------------3----3-3---3-|
D|6-6-6-6-6-6-6-x-6-6-6-6-5-5-3-3-3-3-3-x-3-3--3-3-6-5-3-------------------------------------------------|
A|-------------------------------------------------------6-3-3-3-3---3-3--x--3-3-3-3/1-1-1-1--1-1---1-1--|
E|-------------------------------------------------------------------------------------------------------|

[Solo]

G|-------------------------------------|
D|-------------------------------------|
A|------11\-----0-1-2-3-3-6-5-2------1-|
E|4--4-----1--------------------1--1---|

G|--------------------------------------|
D|--------------------------------------|
A|------11\-----0-1-2-3-3-6/8--8\6------|
E|4--4-----1-----------------------8\6/8|

G|---------------------------------------------------------------------5\3--------------3--3-3----|
D|6-6-6-6-6-6-6-x-6-6-6-6-5-5-3-3-3-3-3-x-3-3--3-3-6-5-3-------------------5\3--------------------|
A|-------------------------------------------------------6-3-3-3-3-3-3---------6\1-1-1-1--1----1-1|
E|------------------------------------------------------------------------------------------------|

G|-----------------------------------------------------------------5---------5-5-5-----------3--3-3-----|
D|6-6-6-6-6-6-6-x-6-6-6-6-5-5-3-3-3-3-3-x-3-3--3-3-6-5-3------------------------------------------------|
A|-------------------------------------------------------6-3-3-3-3---3-x-3-3--------3/1-1-1-1--1----1-1-|
E|------------------------------------------------------------------------------------------------------|

G|5~~~5--5--13~~~13--13\8~~~8--8--7~~~7--7--5~~~|
D|----------------------------------------------|
A|----------------------------------------------|
E|4~~~4--4--13~~~13--13\8~~~8--8--6~~~6--6--4~~~|
-------------------------------------------------------------------------------------------------------
If You want, you can also play this variation of the first in verse:


G|---5-----3-5--------5-----3-5---|
D|--------------------------------|   x4
A|3-x---3-x----x-1--------------1/|
E|-----------------4-x---4-x------|


********************************
| x   Dead note
| /   Slide up
| \   Slide down
********************************
Suggest correction
Creating personal tab
Creating personal tab
You can edit any tab online and save it as your Personal.

You can edit, replace or remove any tab part or add personal notes – all changes will be seen only by you.

Personal tabs can be accessed anytime from any device, even offline.
Learn more »
comments
print report bad tab
7 comments total. Showing first comments.
0 reply
jordanclinch9 10 May 25, 2016 02:34 PM

Incorrect notes in the verse riff - the first Bb in the bar should be a G as well as other incorrect notes in the verse variation. Chorus has octaves which are missing here. The bridge is very wrong, right idea but each descending scale only has 8 notes and doesn't go as low as notated here. The outro is made up of chords using the lowest and highest strings to make 3rds rather the powerchords shown here which create 5ths.

-1 reply
mysokolo 10 Jul 09, 2016 05:48 PM

on the opening it's 16 on low e, then 13 on low e, then 15 on the a, then 13 on the a

0 reply
danleonardnz 10 Jul 13, 2016 05:40 AM

thanks man love the way you noted it! right or wrong get along lol

guest
You may want to rate the tab now too:
select rating
Wanna post a correction for this tab? Suggest correction