Oops, an error
Loading. Please wait.
We have an official Dark Necessities tab made by UG professional guitarists. Check out the tab »
×

Dark Necessities chords

version 1
version 1

Whole song

  • Red Hot Chili Peppers - Dark Necessities Link http... Show more

Interactive

Video

50,173 views 219 this week
7 commentsread comments
1 2 3 4 5
x 41
add to favorites
×
Save as Personal and add changes to this tab that will be seen only by you. Learn more ›
×
You can save this tab as Personal to edit and correct it or add notes. All changes will be seen only by you. Learn more »
launch autoscroll
font size
0
reset
transpose
0
reset
display chords
guitar tuner
backing track
0:00
0:00
edit
Autoscroll
slow
fast
+/-
esc
set tempo
stop
Author
Difficulty
Strumming
There is no strumming pattern for this song yet. and get +5 IQ
[Intro]
                                  
e|---------------------------------|---------------------------------|
B|---------------------------------|---------------------------------|
G|---------------------------------|---------------------------------|
D|---------------------------------|---------------------------------|
A|-3-3-3-3-3-3-3-3-3-3-3-3-3-3-3-3-|-3-3-3-3-3-3-3-3-3-3-3-3-3-3-3-3-|
E|-4-4-4-4-4-4-4-4-4-4-4-4-4-4-4-4-|-1-1-1-1-1-1-1-1-1-1-1-1-1-1-1-1-|
 
     
e|---------------------------------|---------------------------------|    |
B|---------------------------------|---------------------------------|    |
G|---------------------------------|---------------------------------|    |
D|---------------------------------|---------------------------------|    |
A|---------------------------------|---------------------------------|    |
E|-8-8-8-8-8-8-8-8-8-8-8-8-8-8-8-8-|-6-6-6-6-6-6-6-6-6-6-6-6-6-6-6-6-|    |
                                                                          |
e|---------------------------------|---------------------------------|    |
B|---------------------------------|---------------------------------|    |
G|---------------------------------|---------------------------------|    |
D|---------------------------------|---------------------------------|    |
A|---------------------------------|---------------------------------|    |
E|-4-4-4-4-4-4-4-4-4-4-4-4-4-4-4-4-|-1-1-1-1-1-1-1-1-1-1-1-1-1-1-1-1-|    |  x3

e|---------------------------------|---------------------------------|
B|---------------------------------|---------------------------------|
G|---------------------------------|---------------------------------|
D|---------------------------------|---------------------------------|
A|---------------------------------|---------------------------------|
E|-8-8-8-8-8-8-8-8-8-8-8-8-8-8-8-8-|-6-6-6-6-6-6-6-6-6-6-6-6-6-6-6-6-|


   
e|---------------------------------|
B|---------------------------------|
G|-----5-3-5-3----5-3-5-3----------|
D|---------------------------------|  
A|-3----------------------1--------|
E|------------3-4------------------|  x2



[Verse]
Cm                               
  Coming out to the light of day 
      Ab  
we got  many moons than a deeper place
     Cm
So I   keep an eye on the shadow's smile
    Ab                      Fm                     
To see what it has to say                                             
                     Ab                            
You and I both know
                    Cm                             
Everything must go away 
                 Cm                             
Ah, what do you say?                                            
Cm                                                                                            
  Spinning off, head is on my heart
          Ab                                          
It's like   a bit of light and a touch of dark
        Cm                                      
You got   sneak attacked from the zodiac
       Ab                  Fm                      
But I see your eyes spark
                       Ab                                                                        
Keep the breeze and go
                      Cm                            
Blow by blow and go away
                Cm                               
Oh what do you say?


[Chorus]                                            
     Ab                      Fm
Yeah, you don't know my mind
                        Cm                      
You don't know my kind
                      Bb                Ab           
Dark necessities are part of my design
                    Fm                         
Tell the world that 
                         Cm
I'm falling from the sky 
                      Bb               Cm                                      
Dark necessities are part of my design
                                              
e|---------------------------------|
B|---------------------------------|
G|-----5-3-5-3----5-3-5-3----------|
D|---------------------------------|  
A|-3----------------------1--------|
E|------------3-4------------------|  x2                                   


[Verse]
Cm                                                 
  Stumble down to the parking lot
        Ab                                       
You got  no time for the afterthought
             Cm                                        
They're like   ice cream for an astronaut
             Ab                  Fm 
Well that's me looking for weed
                     Ab                                                          
Turn the corner and…
                         Cm                                                
Find the world and show command
            Cm                                  
Playing the hand
                                              

[Chorus]                                            
     Ab                      Fm
Yeah, you don't know my mind
                        Cm                      
You don't know my kind
                      Bb                Ab           
Dark necessities are part of my design
                    Fm                         
Tell the world that 
                         Cm
I'm falling from the sky 
                      Bb               Cm                                      
Dark necessities are part of my design
   

[Interlude]
                                              
Eb Db Fm  Ab

 Eb                                              
Do you want this love of mine?
     Db                                              
The darkness helps to sort the shine
 Fm                                                          
Do you want it, do you want it now?
 Eb                                                 
Do you want it overtime?
  Db                                              
The darkness helps to sort the shine
 Fm                             Ab                             
Do you want it, do you want it now?


[Verse]
Cm                                              
  Pick you up like a paperback
         Ab                                                  
With the   track record of a maniac
       Cm                                                       
So I'm   moving in and we unpack
          Ab                Fm                                  
It's the same as yesterday
                    Ab                       
Honey where we roll
                   Cm                                                
Everything must go away
                Cm                              
Ah, what do you say?


[Chorus]                                            
     Ab                      Fm
Yeah, you don't know my mind
                        Cm                      
You don't know my kind
                      Bb                Ab           
Dark necessities are part of my design
                    Fm                         
Tell the world that 
                         Cm
I'm falling from the sky 
                      Bb               Cm                                      
Dark necessities are part of my design
       
                                       
[Solo]                                                        
e|-11-11-10-10------------------------------------------------------------|
B|-------------11-11-6/8-8-8----------------------------------------------|
G|---------------------------8p10-10-10-----------------------------------|
D|--------------------------------------8p10-10-10------------------------|
A|------------------------------------------------8p10-10-10--------------|
E|-----------------------------------------------------------11p13-13-13--| x4
                                                      
e|--------------------------------------------------|
B|-----------------6p8-6p8--------------------------|
G|-3/5-5-5-5-5-5-5----------------------------------|
D|--------------------------------------------------|
A|--------------------------------------------------|
E|--------------------------------------------------| x4

[Outro]
Ab                                              
Ah-ah-ah
Fm
Ah-ah
Cm
Ah-ah-ah
Bb
Ah-ah
Ab 
Ah-ah-ah
Fm
Ah-ah
Cm 
Ah-ah-ah
Bb
Ah-ah
Ab

Suggest correction
Creating personal tab
Creating personal tab
You can edit any tab online and save it as your Personal.

You can edit, replace or remove any tab part or add personal notes – all changes will be seen only by you.

Personal tabs can be accessed anytime from any device, even offline.
Learn more »
comments
print report bad tab
7 comments total. Showing first comments.
0 reply
delb0y1967 3,614 Jul 22, 2016 11:28 AM

Excellent accurate tab, top work ! 5 stars,
cheers,
Del

+1 reply
toddm62 10 Sep 05, 2016 04:53 PM

Excellent!

+1 reply
alexxx300000000 34 Sep 10, 2016 11:45 AM

good tab!!

guest
You may want to rate the tab now too:
select rating
Wanna post a correction for this tab? Suggest correction