Oops, an error
Loading. Please wait.

Death Of A Martian tab

version 2
version 2

Whole song

Interactive

Video

48,906 views 66 this week
7 commentsread comments
1 2 3 4 5
x 34
add to favorites
×
Save as Personal and add changes to this tab that will be seen only by you. Learn more ›
×
You can save this tab as Personal to edit and correct it or add notes. All changes will be seen only by you. Learn more »
launch autoscroll
font size
0
reset
how to read this tab
guitar tuner
edit
Autoscroll
slow
fast
+/-
esc
set tempo
stop
Author
Tuning : Standard

[Intro]       
        (let ring)              
e|--------------11--------11--------11------------------------10---------10-------10-------------|
B|---------13--------13--------13--------13--------------11---------11--------11-------11--------|
G|.-----12----12--12----12--12----12--12----12--------12----12---12----12--12---12--12----12-----|
D|.----------------------------------------------------------------------------------------------|
A|-----------------------------------------------------------------------------------------------|
E|-----------------------------------------------------------------------------------------------|
                      
e|--------------11--------11--------11------------------------15--------13--------13-------------|
B|---------13--------13--------13--------13--------------16--------16--------15--------15--------|
G|------12----12--12----12--12----12--12----12-------/15----15--15----15--15----15--15----15-15-.|
D|----------------------------------------------------------------------------------------------.|
A|-----------------------------------------------------------------------------------------------|
E|-----------------------------------------------------------------------------------------------|

        (with Leslie simulator)         
e|--------------11--------11--------11------------------------10---------10-------13--11--10--11-|
B|---------13--------13--------13--------13--------------11---------11--------11-----------------|
G|------12----12--12----12--12----12--12----12--------12----12---12----12--12---12---------------|
D|-----------------------------------------------------------------------------------------------|
A|-----------------------------------------------------------------------------------------------|
E|-----------------------------------------------------------------------------------------------|
                        
e|--------------11--------11--------11------------------------15--------18---15---18---15--------|
B|---------13--------13--------13--------13--------------16--------16----------------------------|
G|------12----12--12----12--12----12--12----12-------/15----15--15----15--15----15--15-----------|
D|-----------------------------------------------------------------------------------------------|
A|-----------------------------------------------------------------------------------------------|
E|-----------------------------------------------------------------------------------------------|

[Pre-Chorus]
e|----------13--------11--------10--------------------16--------16--15--15--15--15---------------|
B|-----12--------12--------12--------12----12----12--------12------------------------------------|
G|--12----12--12----12--12----12--12----12----12----12--12----12--12--12--12--12-----------------|
D|-----------------------------------------------------------------------------------------------|
A|-----------------------------------------------------------------------------------------------|
E|-----------------------------------------------------------------------------------------------|

[Chorus]
(strum accordingly) 
e|-----8--------10--------13--------10--------|
B|-----8--------8---------13--------9---------|
G|.----8--------8---------13--------10--------|
D|.----10-------8---------13--------9---------|
A|-----10-----------------11------------------|
E|-----8--------------------------------------|
                                  ________
                                  |1., 2.
e|-----8--------10--------13------------------|                          
B|-----8--------8---------13-------15---------|                          
G|-----8--------8---------13-------12--------.|
D|-----10-------8---------13------(15)-------.|                       
A|-----10-----------------11-------14---------|                    
E|-----8--------------------------------------|                
  ______
  |3.
e|-(15)--------------------(15)-15------------|
B|--12------------------12--12--12------------|
G|--12--12--12--12--12--12--12--12------------|
D|--15--15--15--15--15--15--15--15------------|
A|--14--14--14--14--14--14--14--14------------|
E|--------------------------------------------|

[Verses]       
        (let ring)              
e|--------------11--------11--------11------------------------10---------10-------10-------------|
B|---------13--------13--------13--------13--------------11---------11--------11-------11--------|
G|.-----12----12--12----12--12----12--12----12--------12----12---12----12--12---12--12----12-----|
D|.----------------------------------------------------------------------------------------------|
A|-----------------------------------------------------------------------------------------------|
E|-----------------------------------------------------------------------------------------------|
                      
e|--------------11--------11--------11------------------------15--------13--------13-------------|
B|---------13--------13--------13--------13--------------16--------16--------15--------15--------|
G|------12----12--12----12--12----12--12----12-------/15----15--15----15--15----15--15----15-15-.|
D|----------------------------------------------------------------------------------------------.|
A|-----------------------------------------------------------------------------------------------|
E|-----------------------------------------------------------------------------------------------|

        (with Leslie simulator)         
e|--------------11--------11--------11------------------------10---------10-------13--11--10--11-|
B|---------13--------13--------13--------13--------------11---------11--------11-----------------|
G|------12----12--12----12--12----12--12----12--------12----12---12----12--12---12---------------|
D|-----------------------------------------------------------------------------------------------|
A|-----------------------------------------------------------------------------------------------|
E|-----------------------------------------------------------------------------------------------|
                        
e|--------------11--------11--------11------------------------15--------18---15---18---15--------|
B|---------13--------13--------13--------13--------------16--------16----------------------------|
G|------12----12--12----12--12----12--12----12-------/15----15--15----15--15----15--15-----------|
D|-----------------------------------------------------------------------------------------------|
A|-----------------------------------------------------------------------------------------------|
E|-----------------------------------------------------------------------------------------------|

[Pre-Chorus]
e|----------13--------11--------10--------------------16--------16--15--15--15--15---------------|
B|-----12--------12--------12--------12----12----12--------12------------------------------------|
G|--12----12--12----12--12----12--12----12----12----12--12----12--12--12--12--12-----------------|
D|-----------------------------------------------------------------------------------------------|
A|-----------------------------------------------------------------------------------------------|
E|-----------------------------------------------------------------------------------------------|

[Chorus]
(strum accordingly) 
e|-----8--------10--------13--------10--------|
B|-----8--------8---------13--------9---------|
G|.----8--------8---------13--------10--------|
D|.----10-------8---------13--------9---------|
A|-----10-----------------11------------------|
E|-----8--------------------------------------|
                                  ________
                                  |1., 2.
e|-----8--------10--------13------------------|                          
B|-----8--------8---------13-------15---------|                          
G|-----8--------8---------13-------12--------.|
D|-----10-------8---------13------(15)-------.|                       
A|-----10-----------------11-------14---------|                    
E|-----8--------------------------------------|                
  ______
  |3.
e|-(15)--------------------(15)-15------------|
B|--12------------------12--12--12------------|
G|--12--12--12--12--12--12--12--12------------|
D|--15--15--15--15--15--15--15--15------------|
A|--14--14--14--14--14--14--14--14------------|
E|--------------------------------------------|

[End of last chorus]
  ______
  |3.
e|--15--15----15--15----15--15----15----15-15-15-15--|
B|--12--12----12--12----12--12----12----12-12-12-12--|
G|--12--12----12--12----12--12----12----12-12-12-12--|
D|--15--15----15--15----15--15----15----15-15-15-15--|
A|--14--14----14--14----14--14----14----14-14-14-14--|
E|---------------------------------------------------|

[Outro] (x8)
(let ring)
e|----------8----------10-------------------------------------------------------------------------------|
B|--------8----------9---------------------------9--------------------------9---------------------------|
G|------8---------10---------------12---------10-----------8-------------10--------------------------7--|
D|------------------------------13---------10-----------10---10-------10--------------13-----------9----|
A|-------------11------------13------------------------------------11--------------13----13------8------|
E|----8-------------------11------------10-----------8--------------------------11------------10--------|
      *        *                        *            *

[Solo]
(after 2nd repeat) 
(Gtr. 1)
e|--------------18b20----18b20----18b20----18b20-----18b20r15~------15~-----15~------------------|
B|-----------------------------------------------------------------------------------------------|
G|-----------------------------------------------------------------------------------------------|
D|---0-------------------------------------------------------------------------------------------|
A|---0-------------------------------------------------------------------------------------------|
E|---0-------------------------------------------------------------------------------------------|

(Gtr. 2)
e|--------------18b20--------18b20------18b20---------18b20---------18b20------------------------|
B|-----------------------------------------------------------------------------------------------|
G|-----------------------------------------------------------------------------------------------|
D|-----------------------------------------------------------------------------------------------|
A|-----------------------------------------------------------------------------------------------|
E|-----------------------------------------------------------------------------------------------|

(Gtr. 1)                         slow bend and release
e|----15b16r15-----------------------------------------------------------------------------------|
B|-------------18--16--16b18r16--15b16rrrrr15--------------16b18---------------------------------|
G|------------------------------------------------17-17~---------17b19r17~-----17p15-------------|
D|-----------------------------------------------------------------------------------17~---------|
A|-----------------------------------------------------------------------------------------------|
E|-----------------------------------------------------------------------------------------------|

(Gtr. 2)
e|----18b20--------------------------------------18-20-------------------------------------------|
B|------------------------------------------18b20---------18b20~----18b20r18-18-18b20-20-18-17-18|
G|-----------------------------------------------------------------------------------------------|
D|-----------------------------------------------------------------------------------------------|
A|-----------------------------------------------------------------------------------------------|
E|-----------------------------------------------------------------------------------------------|

(Gtr. 1)
e|---18b20~----18b20~----------------------------------------------------------------------------|
B|-----------------------------------------------------------------------------------------------|
G|-----------------------------------------------------------------------------------------------|
D|-----------------------------------------------------------------------------------------------|
A|-----------------------------------------------------------------------------------------------|
E|-----------------------------------------------------------------------------------------------|

(Gtr. 2)            (trem bar dips)
e|-----------------------------------------------------------------------------------------------|
B|-------------------16-^-^-^-^-----16b18r16--16b18r16--16b18r16---------------------------------|
G|-----------------------------------------------------------------------------------------------|
D|-----------------------------------------------------------------------------------------------|
A|-----------------------------------------------------------------------------------------------|
E|-----------------------------------------------------------------------------------------------|

(Gtr. 1)
e|-----18b20r15~-----16-16b18r16-15~---------15h16p15--------------------------------------------|
B|-----------------------------------------------------16~-----16b18r16--15-16-------------------|
G|-----------------------------------------------------------------------------------------------|
D|-----------------------------------------------------------------------------------------------|
A|-----------------------------------------------------------------------------------------------|
E|-----------------------------------------------------------------------------------------------|

(Gtr. 2)
e|-----------------------------------------------------------------------------------------------|
B|------18b20~-----------------------------------------------------------------------------------|
G|-----------------------------------------------------------------------------------------------|
D|-----------------------------------------------------------------------------------------------|
A|-----------------------------------------------------------------------------------------------|
E|-----------------------------------------------------------------------------------------------|

(Gtr. 1)
e|--------18b20~---------------------------------------------------------------------------------|
B|--------------x--18b20~-^-^-^-^--------------------------18b20r18p16-18b20-16b18~~~~~~~~~~~----|
G|-----------------------------------------------------------------------------------------------|
D|-----------------------------------------------------------------------------------------------|
A|-----------------------------------------------------------------------------------------------|
E|-----------------------------------------------------------------------------------------------|

(Gtr. 2)
e|--------18b20~---------------------------------------------------------------------------------|
B|-----------------------------------------------------------------------------------------------|
G|-----------------------------------------------------------------------------------------------|
D|-----------------------------------------------------------------------------------------------|
A|-----------------------------------------------------------------------------------------------|
E|-----------------------------------------------------------------------------------------------|

(Gtr. 1)
e|----------------20-----------------------------------18b20r18~~~~~~~~~~~-----------------------|
B|----------(18)-----18rrrrrr16----15b16r13------------------------------------------------------|
G|-----------------------------------------------------------------------------------------------|
D|-----------------------------------------------------------------------------------------------|
A|-----------------------------------------------------------------------------------------------|
E|-----------------------------------------------------------------------------------------------|

(Gtr. 2)
e|---20--20b22-20b23--20~---20b22-20b23--20~---20--20p18-----------------------------------------|
B|------------------------------------------------------20---20b21r20b21r20b21r20---18h20p18\16--|
G|-----------------------------------------------------------------------------------------------|
D|-----------------------------------------------------------------------------------------------|
A|-----------------------------------------------------------------------------------------------|
E|-----------------------------------------------------------------------------------------------|

(Gtr. 1)
e|---15~---------------------|
B|---------------------------|
G|---------------------------|
D|---------------------------|
A|---------------------------|
E|---------------------------|

(Gtr. 2)          feedback
e|---------------------------|
B|---16~---------------------|
G|---------------------------|
D|---------------------------|
A|---------------------------|
E|---------------------------|


************************************

| /    Slide up
| (n)  Ghost note
| r    Release
| b    Bend
| ~    Vibrato
| p    Pull-off
| h    Hammer-on
| x    Dead note
| \    Slide down

************************************

            
            
Suggest correction
Creating personal tab
Creating personal tab
You can edit any tab online and save it as your Personal.

You can edit, replace or remove any tab part or add personal notes – all changes will be seen only by you.

Personal tabs can be accessed anytime from any device, even offline.
Learn more »
comments
print report bad tab
7 comments total. Showing first comments. show 1 bad comment
0 reply
Keasby 236 Jan 06, 2007 07:40 AM

Hey Guys!

Very Good Tab! Well done!

So long

0 reply
guitarded32 40 Feb 01, 2007 09:08 AM

This is probably as close to perfect as anyone'll ever get on this song. 5 stars.

guest
You may want to rate the tab now too:
select rating
Wanna post a correction for this tab? Suggest correction