Oops, an error
Loading. Please wait.

Dont Forget Me Tab

version 5
version 5

Live

Whole song

37 views 3 this week
no commentswrite comment
1 2 3 4 5
3 more votes to show rating
add to favorites
launch autoscroll
font size
0
reset
how to read this tab
guitar tuner
Autoscroll
slow
fast
+/-
esc
set tempo
stop
Help us to improve Ultimate-Guitar.com Take our survey!
×
Author
Difficulty
intermediate
About this tab version
The first tab of the Reading Outro solo. Was this info helpful? Yes No
I tabbed the famous "Reading Festival" Don't forget me outro solo by the RHCP.. One of Frusciante's best solos
ever! 

[Outro Solo]

e|---------------------------------------------------------------------------------|
B|---5/8-8-8--10--10--10---12b14b12------------------------------------------------|
G|-----------------------------------12-12-14b16b14-------------------12-14b16b14--|
D|--------------------------------------------------14-12\10-12/14-14--------------|
A|---------------------------------------------------------------------------------|
E|---------------------------------------------------------------------------------|

e|-----------------------------------------------------------------------------------------------------------|
B|-----------------------------------------------------------------------------------------------------------|
G|----------------------------------------12-14b16b14-------------------12-----------------------------------|
D|--14--12\10-10--12-10\9-9-9-10-10/14-14-------------14-12\11-12/14-14----14-14-14b16b14-11-14b16b14--------|
A|-----------------------------------------------------------------------------------------------------------|
E|-----------------------------------------------------------------------------------------------------------|

e|---------------------------------------------------------------|
B|---------------------------------------------------------------|
G|---------------------------------------------------------------|
D|----------14b16b14-------------------12------------------------|
A|-15-12-12----------15-10-10-12-12/15----15-14--12b-14-15-12b---|
E|---------------------------------------------------------------|

e|-------------------------------------------------------------------------------|
B|-----13--13h17-13-----13--13h18-13--------17--17h20-17-----15--15h18-15--------|
G|---14--14--------14-14--14--------14-14/17--17--------17-16--16--------16------|
D|-------------------------------------------------------------------------------|
A|-------------------------------------------------------------------------------|
E|-------------------------------------------------------------------------------|

e|-------------------------------------------------------------------------------------|
B|------13--13h17-13-----10--10h13-10--------17--17h20-17-----15--15h18-15---22b24-(x8)|
G|----14--14--------14-10--10--------10-10/17--17--------17-16--16--------16-----------|
D|-------------------------------------------------------------------------------------|
A|-------------------------------------------------------------------------------------|
E|-------------------------------------------------------------------------------------|

e|-------------------------------------------------------------------------------------------------|
B|--171717h18p17171717h18p17--13-15b17-13-12-13-15b17-13-10---10-12b14b12--------------------------|
G|--------------------------------------------------------------------------12-12-14b16b14---------|
D|-------------------------------------------------------------------------------------------------|
A|-------------------------------------------------------------------------------------------------|
E|-------------------------------------------------------------------------------------------------|

e|---------------------------------------------------------------|
B|---------------------------------------------------------------|
G|---------------------------------------------------------------|
D|---14-12\10-12--14p12\10---------------------------------------|
A|-------------------------12---12\------------------------------|
E|---------------------------------------------------------------|


************************************

| b  Bend
| /  Slide up
| \  Slide down
| h  Hammer-on
| p  Pull-off

************************************
Suggest correction
Give kudos to tab author, rate the tab!
1 2 3 4 5
comments
print report bad tab
guest
You may want to rate the tab now too:
select rating
Wanna post a correction for this tab? Suggest correction