Oops, an error
Loading. Please wait.

Dont Forget Me Tab

version 2
version 2

Whole song

Video

29,010 views 27 this week
2 commentsread comments
1 2 3 4 5
x 14
add to favorites
×
Save as Personal and add changes to this tab that will be seen only by you. Learn more ›
×
You can save this tab as Personal to edit and correct it or add notes. All changes will be seen only by you. Learn more »
save as personal
new!
launch autoscroll
font size
0
reset
how to read this tab
guitar tuner
backing track
0:00
0:00
Autoscroll
slow
fast
+/-
esc
set tempo
stop
Author
[Intro]
(Bass only)

[Verse]
(come in on 9th measure)
w/dist.and delay,set for eighth-note repeats

[Riff A]
 p.m.-------------------------------------------|
e|-0-start-tremolo-pick--now stop--0--0-0-0-0--0-|
B|-----------------------------------------------|
G|-----------------------------------------------|
D|-----------------------------------------------|
A|-----------------------------------------------|
E|-----------------------------------------------|
 
[Interlude]
e|-5h7p5h7p5h7p5h7p5h7p5h7p5h7p5h7p5h7p5h7p5h7p5h7p5-|
B|---------------------------------------------------|
G|---------------------------------------------------|
D|---------------------------------------------------|
A|---------------------------------------------------|
E|---------------------------------------------------|

 T     T     T     T     T     T     T     T     T     T     T     T
e|8p5p0-8p5p0-8p5p0-8p5p0-8p5p0-8p5p0-8p5p0-8p5p0-8p5p0-8p5p0-8p5p0-8p5p0-|
B|------------------------------------------------------------------------|
G|------------------------------------------------------------------------|
D|------------------------------------------------------------------------|
A|------------------------------------------------------------------------|
E|------------------------------------------------------------------------|

[Riff A] (x2)
  T     T     T     T     T     T 
e|-8p5p0-8p5p0-8p5p0-8p5p0-8p5p0-8p5p0-|
B|-------------------------------------|
G|-------------------------------------|
D|-------------------------------------|
A|-------------------------------------|
E|-------------------------------------|

[Verse]
(play riff A and riff B)
e|----------------------------|
B|----------------------------|
G|----------------------------|
D|----------------------------|
A|----------------------------|
E|----------------------------|

[Chorus]
  trem.picking---------------------------------|
e|-5----------------------17---------------------|
B|-5----------------------17---------------------|
G|-----------------------------------------------|
D|-----------------------------------------------|
A|-----------------------------------------------|
E|-----------------------------------------------|
 
[Guitar Solo]
(this solo was effing hard to figure out,so show sympathy if at all wrong!)
 w/wah peddal
  trem pick all the way through.
e|-12\----------------------12////15\\\\12\-|-----------------|
B|------8--10-------10----------------------|-8-----10--------|
G|------------------------------------------|-----------------|
D|------------------------------------------|-----------------|
A|------------------------------------------|-----------------|
E|------------------------------------------|-----------------|

 stop trem.picking---------------------| start again-| now stop
e|-----------------------------|---------------------------------|
B|-10b-full-step-10b-full-step-|-10----8----8----------10--8-----|
G|-----------------------------|-----------------9-------------9-|
D|-----------------------------|---------------------------------|
A|-----------------------------|---------------------------------|
E|-----------------------------|---------------------------------|

[Chorus]
  trem.picking---------------------------------|
e|-5----------------------17---------------------|
B|-5----------------------17---------------------|
G|-----------------------------------------------|
D|-----------------------------------------------|
A|-----------------------------------------------|
E|-----------------------------------------------|

[Interlude]
 delay off                        (x4) 
e|-----|-5-3-0-5-3-0-0-|-5-3-0-5-3-0-|
B|-0---|---------------|-------------|
G|-0---|---------------|-------------|
D|-----|---------------|-------------|
A|-----|---------------|-------------|
E|---0-|---------------|-------------|

[Verse]
[Riff A]
 p.m.-------------------------------------------|
e|-0-start-tremolo-pick--now stop--0--0-0-0-0--0-|
B|-----------------------------------------------|
G|-----------------------------------------------|
D|-----------------------------------------------|
A|-----------------------------------------------|
E|-----------------------------------------------|

[Riff A] (x2)
  T     T     T     T     T     T 
e|-8p5p0-8p5p0-8p5p0-8p5p0-8p5p0-8p5p0-|
B|-------------------------------------|
G|-------------------------------------|
D|-------------------------------------|
A|-------------------------------------|
E|-------------------------------------|


************************************

| h  Hammer-on
| p  Pull-off
| /  Slide up
| \  Slide down
| b  Bend

************************************
Suggest correction
comments
print report bad tab
2 comments total.
0 reply
oxocubeingravy 362 Aug 10, 2006 07:49 AM

i prefer picking 5 for the first bit on the string above but yer woteva. good tab

0 reply
bb_phobia 124 Jul 08, 2007 08:35 AM

best version there is. Nice work. It looks similar to the slane castle version.

guest
You may want to rate the tab now too:
select rating
Wanna post a correction for this tab? Suggest correction