Oops, an error
Loading. Please wait.

Dont Forget Me Live tab

version 5
version 5
22,786 views 15 this week
5 commentsread comments
1 2 3 4 5
x 8
add to favorites
×
Save as Personal and add changes to this tab that will be seen only by you. Learn more ›
×
You can save this tab as Personal to edit and correct it or add notes. All changes will be seen only by you. Learn more »
launch autoscroll
font size
0
reset
how to read this tab
guitar tuner
backing track
0:00
0:00
edit
Autoscroll
slow
fast
+/-
esc
set tempo
stop
Author
Difficulty
Tabbers playing skills
intermediate
beginner ++
My version of the live at Hyde park
apart from a few notes in the 3rd solo I'm pretty sure it's 100% correct!

Bass Intro (for Guitar):
|---------------------------------|
|---------------------------------|
|---------------------------------|
|-----------------7-x-x-x---------|
|-9-x-x-x-5-x-x-x-5-x-x-x-7-x-x-x-|
|-7-x-x-x-3-x-x-x---------5-x-x-x-|

Verse:
  |----trem. pick-----------|
|-000000000000000000000000000-0-0-0-|
|-----------------------------------|
|-----------------------------------|
|-----------------------------------|
|-----------------------------------|
|-----------------------------------|

Pre-Chorus:
|-5h7-5h7-5h7-5h7-5h7-5h7-5h7-5h7-5h7-5h7-5h7-5h7-5h7-5h7-5h7-5h7-|
|-----------------------------------------------------------------|
|-----------------------------------------------------------------|
|-----------------------------------------------------------------|
|-----------------------------------------------------------------|
|-----------------------------------------------------------------|
     T     T     T     T     T     T     T     T     T     T     T
|-5-8-5p0-8-5p0-8-5p0-8-5p0-8-5p0-8-5p0-8-5p0-8-5p0-8-5p0-8-5p0-8-5-|
|-------------------------------------------------------------------|
|-------------------------------------------------------------------|
|-------------------------------------------------------------------|
|-------------------------------------------------------------------|
|-------------------------------------------------------------------|

Verse

Pre-Chorus

Chorus:(Trem Pick a few times before sliding up)
  
|-5-5-5-5-/17-17-17-17-|
|-5-5-5-5-/17-17-17-17-|
|----------------------|
|----------------------|
|----------------------|

Solo I:(Trem Pick each note, listen to song for how many times)
|-12----------------------------------|
|----8-10-8-17-20-17-8-10----10-8-5/--|
|-------------------------9-----------|
|-------------------------------------|
|-------------------------------------|
|-------------------------------------|

Solo II:
|-15h17----15h17----15h17----15h17----15h17----15h17----15h17----|
|-------17-------17-------17-------17-------17-------17-------17-|
|----------------------------------------------------------------|
|----------------------------------------------------------------|
|----------------------------------------------------------------|
|----------------------------------------------------------------|

|-15h17----15h17----15h17----15h17----15h17----17b19r17-15h17----|
|-------17-------17-------17-------17-------17----------------17-|
|----------------------------------------------------------------|
|----------------------------------------------------------------|
|----------------------------------------------------------------|
|----------------------------------------------------------------|

|-----15-----15-----15-----15-----15-----15-----15-----15-----15-|
|-15b----15b----15b----15b----15b----15b----15b----15b----15b----|
|----------------------------------------------------------------|
|----------------------------------------------------------------|
|----------------------------------------------------------------|
|----------------------------------------------------------------|

|---------------------------------------------------------|
|-17-15-13-12-13-12h13p12-10-10h12-13b16r13~~-10-12-13-15-|
|---------------------------------------------------------|
|---------------------------------------------------------|
|---------------------------------------------------------|
|---------------------------------------------------------|

|-12-13-15-17-19~~-19~~~-19~~~17~-15/17~~~-|
|------------------------------------------|
|------------------------------------------|
|------------------------------------------|
|------------------------------------------|
|------------------------------------------|


Solo III
|------------------------------12------------------------|
|-13-12-13-12-10-10~~-10h12-13----13-10-10----10-12-13~~~|
|--------------------------------------------------------|
|--------------------------------------------------------|
|--------------------------------------------------------|
|--------------------------------------------------------|

|-12---------------------12-13-15--|
|----13-10-10----10-12-13----------|
|----------------------------------|
|----------------------------------|
|----------------------------------|
|----------------------------------|

|-17-15----17-15-------17-15----17b20r17p15-------|
|-------17-------17-17-------17-------------17~~~~|
|-------------------------------------------------|
|-------------------------------------------------|
|-------------------------------------------------|
|-------------------------------------------------|

|-17-15----17-15-----------15-------15-------15-------15----------|
|-------17-------17--15-17----15-17----15-17----15-17----15-13~~~-|
|-----------------------------------------------------------------|
|-----------------------------------------------------------------|
|-----------------------------------------------------------------|
|-----------------------------------------------------------------|

            
            
Suggest correction
Creating personal tab
Creating personal tab
You can edit any tab online and save it as your Personal.

You can edit, replace or remove any tab part or add personal notes – all changes will be seen only by you.

Personal tabs can be accessed anytime from any device, even offline.
Learn more »
comments
print report bad tab
5 comments total. Showing first comments.
0 reply
pimpfish 10 Jun 10, 2007 06:54 AM

for the start of solo 2, its B|---22p20p17 x however many times

+1 reply
HiMyNameIsMatt 190 Aug 22, 2007 10:00 AM

can someone do the version from slane?

0 reply
HiMyNameIsMatt 190 Jan 04, 2008 10:35 AM

If this is the version from slane I think the first solo is wrong...

guest
You may want to rate the tab now too:
select rating
Wanna post a correction for this tab? Suggest correction