Oops, an error
Loading. Please wait.

Dosed Tab

version 4
46,110 views 90 this week
2 commentsread comments
1 2 3 4 5
x 3
add to favorites
launch autoscroll
font size
0
reset
how to read this tab
guitar tuner
Autoscroll
slow
fast
+/-
esc
set tempo
stop
Help us to improve Ultimate-Guitar.com Take our survey!
×
Author
Difficulty
intermediate
Artist: Red Hot Chili Peppers 
Song: Dosed

[Intro]
(Gtr 1)
e|-12-----12----12----12----10----10--7--7---|
B|------12----12----12----10----10---8--8----|
G|----12----12----12----11----11----9--9-----| X4 
D|-------------------------------------------|
A|-------------------------------------------|
E|-------------------------------------------|

[Gtr 2]
e|---------------|
B|---------------|
G|-12-11-9-----9~| x4
D|---------12~---|
A|---------------|
E|---------------|

[Gtr 3]
e|----------------------|
B|----------------------|
G|----9---9----11----12-| x4
D|----------------------|
A|--10--10---12----14---|
E|-8---8---10----12-----|

[Gtr 4]
e|-----------|     |-----------|
B|-----------|     |-----------|
G|-----7-----| x3  |-----7-9---|
D|-9-9---9-9-|     |-9-9-----9-|
A|-----------|     |-----------|
E|-----------|     |-----------|

[Verse 1]
(Gtr 1)
e|-12-----12----12----12----10----10--7--7---|
B|------12----12----12----10----10---8--8----|
G|----12----12----12----11----11----9--9-----| x12
D|-------------------------------------------|
A|-------------------------------------------|
E|-------------------------------------------|

[Gtr 2]
e|---------------|
B|---------------|
G|-12-11-9-----9~| x12
D|---------12~---|
A|---------------|
E|---------------|

[Gtr 3]
e|-10-----|-10-----|-10-----|-19-17-----------|-15-14-----------|
B|----7-8-|----7-8-|----7-8-|-------20-19--20-|-------17-15--17-|
G|--------|--------|--------|-----------------|-----------------|
D|--------|--------|--------|-----------------|-----------------|
A|--------|--------|--------|-----------------|-----------------|
E|--------|--------|--------|-----------------|-----------------|

e|-----------|  
B|-----------|  
G|-----7-----| x2 
D|-9-9---9-9-|     
A|-----------|     
E|-----------|     

e|-10-----|-10-----|-10-----|-19-17-----------|-15-14-----------|
B|----7-8-|----7-8-|----7-8-|-------20-19--20-|-------17-15--17-|
G|--------|--------|--------|-----------------|-----------------|
D|--------|--------|--------|-----------------|-----------------|
A|--------|--------|--------|-----------------|-----------------|
E|--------|--------|--------|-----------------|-----------------|

[Chorus 1]
(Gtr 1)
   G        D        Em       C
e|-3--------5--------7--------8-------|
B|-3--------7--------8--------8-------|
G|-4--------7--------9--------9-------| X4
D|-5--------7--------9--------10------|
A|-5--------5--------7--------10------|
E|-3--------5--------7--------8-------|

[Gtr 2] x2
   G            D        Em         C            
e|-----------------12-14-12-12-12-12-15-14-12----|        
B|-12--13--13--/15-------12-12-12-12----------15-|        
G|-12--12--12--/14-------------------------------|        
D|-----------------------------------------------|        
A|-----------------------------------------------|        
E|-----------------------------------------------|        
                                                         
 G          D           Em           C                   
e|---------------------------------------------------------|     
B|-12-13-12--10-10-12-13--12-12-12-12-12-12-12-15-12-15-12-|     
G|-12-12-12--11-11-11-11--12-12-12-12-12-12-12-12-12-12-12-|     
D|-----------------------14-14-14-14-14-14-14-14-14-14-14--|     
A|---------------------------------------------------------|    
E|---------------------------------------------------------| 

[Verse 2]
(Gtr 1)
e|-12-----12----12----12----10----10--7--7---|
B|------12----12----12----10----10---8--8----|
G|----12----12----12----11----11----9--9-----| x7
D|-------------------------------------------|
A|-------------------------------------------|
E|-------------------------------------------|

[Gtr 2]
e|---------------|
B|---------------|
G|-12-11-9-----9~| x7
D|---------12~---|
A|---------------|
E|---------------|

[Gtr 3]
e|-10-----|-10-----|-10-----|-19-17-----------|-19-17-----------|-15-14-----------|-15-14-----------|
B|----7-8-|----7-8-|----7-8-|-------20-19--20-|-------20-19--20-|-------17-15--17-|-------17-15--17-|
G|--------|--------|--------|-----------------|-----------------|-----------------|-----------------|
D|--------|--------|--------|-----------------|-----------------|-----------------|-----------------|
A|--------|--------|--------|-----------------|-----------------|-----------------|-----------------|
E|--------|--------|--------|-----------------|-----------------|-----------------|-----------------|

[Chorus 2]
(Gtr 1)
   G        D        Em       C
e|-3--------5--------7--------8-------|
B|-3--------7--------8--------8-------|
G|-4--------7--------9--------9-------| Strike these chords as appropriate 
D|-5--------7--------9--------10------| when they are show. Listen to the song.
A|-5--------5--------7--------10------|
E|-3--------------------------8-------|

[Gtr 2]
   G            D        Em         C            
e|-----------------12-14-12-12-12-12-15-14-12----|
B|-12--13--13--/15-------12-12-12-12----------15-|
G|-12--12--12--/14-------------------------------|
D|-----------------------------------------------|
A|-----------------------------------------------|
E|-----------------------------------------------|
  G         D           Em           C
e|---------------------------------------------------------|
B|-12-13-12--10-10-12-13--12-12-12-12-12-12-12-15-12-15-12-|
G|-12-12-12--11-11-11-11--12-12-12-12-12-12-12-12-12-12-12-|
D|-----------------------14-14-14-14-14-14-14-14-14-14-14--|
A|---------------------------------------------------------|
E|---------------------------------------------------------|

   G            D        Em         C                      
e|-----------------12-14-12-12-12-12-15-14-12----|
B|-12--13--13--/15-------12-12-12-12----------15-|
G|-12--12--12--/14-------------------------------| 
D|-----------------------------------------------|
A|-----------------------------------------------|
E|-----------------------------------------------|

   G         D           Em                            C
e|----------------------------------------------------------------------------------|
B|-12-13-12--1010-12-13--12-1212-1212--12-1212-121212--15-1515-1515--15-1515-151515-|
G|-12-12-12--1111-11-11--12-1212-1212--12-1212-121212--12-1212-1212--12-1212-121212-|
D|-----------------------14-1414-1414--14-1414-141414--14-1414-1414--14-1414-141414-|
A|----------------------------------------------------------------------------------|
E|----------------------------------------------------------------------------------|

[Fill]
(Gtr 1)
e|-12-----12----12----12----10----10--7--7---|
B|------12----12----12----10----10---8--8----|
G|----12----12----12----11----11----9--9-----| x2 
D|-------------------------------------------|
A|-------------------------------------------|
E|-------------------------------------------|

[Gtr 2]
e|----------------------|
B|----------------------|
G|----9---9----11----12-| x2
D|----------------------|
A|--10--10---12----14---|
E|-8---8---10----12-----|

[Gtr 3]
e|---------------|
B|---------------|
G|-12-11-9-----9~| x2
D|---------12~---|
A|---------------|
E|---------------|

[Gtr 4]
e|-----------|-----------|
B|-----------|-----------|
G|-----7-----|-----7-9---|
D|-9-9---9-9-|-9-9-----9-|
A|-----------|-----------|
E|-----------|-----------|

[Verse 3]
(Gtr 1)
e|-12-----12----12----12----10----10--7--7---|
B|------12----12----12----10----10---8--8----|
G|----12----12----12----11----11----9--9-----| x7
D|-------------------------------------------|
A|-------------------------------------------|
E|-------------------------------------------|

[Gtr 2]
e|-10-----|-10-----|-10-----|-19-17-----------|-19-17-----------|-15-14-----------|-15-14-----------|
B|----7-8-|----7-8-|----7-8-|-------20-19--20-|-------20-19--20-|-------17-15--17-|-------17-15--17-|
G|--------|--------|--------|-----------------|-----------------|-----------------|-----------------|
D|--------|--------|--------|-----------------|-----------------|-----------------|-----------------|
A|--------|--------|--------|-----------------|-----------------|-----------------|-----------------|
E|--------|--------|--------|-----------------|-----------------|-----------------|-----------------|

[Chorus 3]
(Gtr 1)
   G        D        Em       C
e|-3--------5--------7--------8-------|
B|-3--------7--------8--------8-------|
G|-4--------7--------9--------9-------| (Strike these chords as appropriate 
D|-5--------7--------9--------10------| when they are show. Listen to the song.)
A|-5--------5--------7--------10------|
E|-3--------5--------7--------8-------|

[Gtr 2]
   G            D        Em         C            
e|-----------------12-14-12-12-12-12-15-14-12----|
B|-12--13--13--/15-------12-12-12-12----------15-|
G|-12--12--12--/14-------------------------------|
D|-----------------------------------------------|
A|-----------------------------------------------|
E|-----------------------------------------------|

  G         D           Em           C
e|---------------------------------------------------------|
B|-12-13-12--10-10-12-13--12-12-12-12-12-12-12-15-12-15-12-|
G|-12-12-12--11-11-11-11--12-12-12-12-12-12-12-12-12-12-12-|
D|-----------------------14-14-14-14-14-14-14-14-14-14-14--|
A|---------------------------------------------------------|
E|---------------------------------------------------------|

   G            D        Em         C                      
e|-----------------12-14-12-12-12-12-15-14-12----|
B|-12--13--13--/15-------12-12-12-12----------15-|
G|-12--12--12--/14-------------------------------| 
D|-----------------------------------------------|
A|-----------------------------------------------|
E|-----------------------------------------------|

   G         D           Em                            C
e|---------------------------------------------------------------------------------------------|
B|-12-13-12--10-10-12-13--12-12-12-12-12--12-12-12-12-12-12--15-15-15-15-15--15-15-15-15-15-15-|
G|-12-12-12--11-11-11-11--12-12-12-12-12--12-12-12-12-12-12--12-12-12-12-12--12-12-12-12-12-12-|
D|-----------------------14-14-14-14-14--14-14-14-14-14-14--14-14-14-14-14--14-14-14-14-14-14--|
A|---------------------------------------------------------------------------------------------|
E|---------------------------------------------------------------------------------------------|

[Solo]
(Gtr 1)
e|-12-----12----12----12----10----10--7--7---|
B|------12----12----12----10----10---8--8----|
G|----12----12----12----11----11----9--9-----| x6
D|-------------------------------------------|
A|-------------------------------------------|
E|-------------------------------------------|

[Gtr 2]
e|---------------|
B|---------------|
G|-12-11-9-----9~| x6
D|---------12~---|
A|---------------|
E|---------------|

e|-12-10-12-10-12-10-12-10-12-10-------------12-10-12-10-12-10-12-10-12-10----|
B|--------------------------12-12-12-12---------------------------12-12-12-12-|
G|----------------------------------------------------------------------------|
D|----------------------------------------------------------------------------|
A|----------------------------------------------------------------------------|
E|----------------------------------------------------------------------------|

e|-----------------------------------10-12-10-12-10-12-10----------|
B|-13-13-13-13-13-12-------------------12-13-12-13-12-13-12--------|
G|-----------------12-12-12-11/12-12-12----------------------12-12-|
D|-----------------------------------------------------------------|
A|-----------------------------------------------------------------|
E|-----------------------------------------------------------------|

e|-12-10-12-10-12-10-12-10-12-10-------------12-10-12-10-12-10-12-10-12-10------------|
B|--------------------------12-12-12-12---------------------------12-12-12-12---------|
G|------------------------------------------------------------------------------------|
D|------------------------------------------------------------------------------------|
A|------------------------------------------------------------------------------------|
E|------------------------------------------------------------------------------------|
                                      Half Bend
e|-----------------------------------------------------|
B|-15-15-15-15-15-15-13-13-13-13-13-12--12------12^-15-|
G|-----------------------------------------------------|
D|-----------------------------------------------------|
A|-----------------------------------------------------|
E|-----------------------------------------------------|


************************************

| ~  Vibrato
| /  Slide up

************************************
Suggest correction
Give kudos to tab author, rate the tab!
1 2 3 4 5
comments
print report bad tab
2 comments total.
0 reply
Legendary_Inc 143 Apr 09, 2007 11:40 AM

What the? Its not been pasted on the site correctly?
its gone all weird, crap!!

0 reply
Legendary_Inc 143 Apr 09, 2007 11:53 AM

The Gtr 2 part in the chorus should be :


Gtr 2
G D Em C G D Em C
e|-----------------12-14-12-12-1212-15-14-12-----------------------------------------------------|
B|-12--13--13--/15-------12-12-1212----------15-12-13-12--1010-12-13--12-12-121212-12121512-1512-|
G|-12--12--12--/14------------------------------12-12-12--1111-11-11--12-12-121212-12121212-1212-|
D|--------------------------------------------------------------------14-14-141414-14141414-1414-|
A|-----------------------------------------------------------------------------------------------|
E|-----------------------------------------------------------------------------------------------|

Hope it posts correctly, i dont see what happened to it, ur smart you should be able to figure out how it goes, unless someone knows how i can amend the tab?

guest
You may want to rate the tab now too:
select rating
Wanna post a correction for this tab? Suggest correction