Oops, an error
Loading. Please wait.

Easily bass

version 3
version 3

Whole song

27,427 views 21 this week
2 commentsread comments
1 2 3 4 5
x 12
add to favorites
×
Save as Personal and add changes to this tab that will be seen only by you. Learn more ›
×
You can save this tab as Personal to edit and correct it or add notes. All changes will be seen only by you. Learn more »
launch autoscroll
font size
0
reset
guitar tuner
backing track
0:00
0:00
edit
Autoscroll
slow
fast
+/-
esc
set tempo
stop
Red Hot Chili Peppers
Song: Easily Bass Tab
Album: Californication

Intro:

G|----------------5---------------------------------|
D|--------5-----7---7--3-3--5-7--7-7-------5-7p5----|
A|------7---5------------------------5h7---------7--|
E|--5-----------------------------------------------|

1st Verse:
(2x)

G|-------------------------5-----------------------------------}
D|----------5------------7----7-0-3-3--5-7--7-7-7-----5-7p5----}
A|--------7----5--5-5-5--------------------------5h7-------7---}
E|--5-5-5------------------------------------------------------}
                                                               ]
G|-------------------------5-----5-----------------------------}
D|----------5-----------7----0-3---7-7-7-7-7-5---5-------------}
A|--------7---5--5-5-5-5-----------------------7---------------}
E|--5-5-5------------------------------------------------------}

Than this

G|-------------------------5-----------------------------------|
D|----------5------------7----7-0-3-3--5-7--7-7-7-----5-7p5----|
A|--------7----5--5-5-5--------------------------5h7-------7---|
E|--5-5-5------------------------------------------------------|

G|-------------------------5-----5----------------------------|
D|----------5-----------7----0-3---7-7-7-7-7-7-7-7------------|
A|--------7---5--5-5-5-5--------------------------------------|
E|--5-5-5-----------------------------------------------------|


1st Chorus:

G|-----9----------------------------------------------------------|
D|-------10---10--------5--------3--------------------------------|
A|----------10--------5--------3----------------------------------|
E|---8--------------3-----3--1-----1------------------------------|

G|-----9-----------------------------------------------------------|
D|-------10---10-------5-------3-----------------------------------|
A|----------10-------5-------3---3---------------------------------|
E|---8-------------3-----3-1------1--------------------------------|

G|-------------4------------------------4-5-4--------------------------|
D|--------5------5----------3-----------------5----------3-------------|
A|-----7-----------5------3---3----7-----------(5)------3--------------|
E|---5---------------3--1--------5-----------------3--1-----1----------|

2nd Verse (Same as First Verse):
(2x)

G|-------------------------5-----------------------------------}
D|----------5------------7----7-0-3-3--5-7--7-7-7-----5-7p5----}
A|--------7----5--5-5-5--------------------------5h7-------7---}
E|--5-5-5------------------------------------------------------}

G|-------------------------5-----5-----------------------------}
D|----------5-----------7----0-3---7-7-7-7-7-5---5-------------}
A|--------7---5--5-5-5-5-----------------------7---------------}
E|--5-5-5------------------------------------------------------}

Than this

G|-------------------------5-----------------------------------|
D|----------5------------7----7-0-3-3--5-7--7-7-7-----5-7p5----|
A|--------7----5--5-5-5--------------------------5h7-------7---|
E|--5-5-5------------------------------------------------------|

G|-------------------------5-----5-----------------------------|
D|----------5-----------7----0-3---7-7-7-7-7-7-7-7-------------|
A|--------7---5--5-5-5-5---------------------------------------|
E|--5-5-5------------------------------------------------------|


2nd Chorus:
 (2x)

G|-----9----------------------------------------------------------|
D|-------10---10--------5--------3--------------------------------|
A|----------10--------5--------3----------------------------------|
E|---8--------------3-----3--1-----1------------------------------|

G|-----9-----------------------------------------------------------|
D|-------10---10-------5-------3-----------------------------------|
A|----------10-------5-------3---3---------------------------------|
E|---8-------------3-----3-1------1--------------------------------|

G|-------------4------------------------4-5-4--------------------------|
D|--------5------5----------3-----------------5----------3-------------|
A|-----7-----------5------3---3----7-----------(5)------3--------------|
E|---5---------------3--1--------5-----------------3--1-----1----------|

1st solo & when Anthony comes in:

G|-------------------------5-----------------------------------|
D|----------5------------7----7-0-3-3--5-7--7-7-7-/14----------|
A|--------7----5--5-5-5----------------------------------------|
E|--5-5-5------------------------------------------------------|

G|-------------------------5-----5------------------------------|
D|----------5-----------7----0-3---7-7-7-7-----5-7p5------------|
A|--------7---5--5-5-5-5-------------------5-7-------7-5--------|
E|--5-5-5------------------------------------------------7------|


G|-------------------------5-----------------------------------|
D|----------5------------7----7-0-3-3--5-7--7-7-7-----5-7p5----|
A|--------7----5--5-5-5--------------------------5h7-------7---|
E|--5-5-5------------------------------------------------------|

G|-------------------------5-----5-----------------------------|
D|----------5-----------7----0-3---7-7-7-7-7-5---5-------------|
A|--------7---5--5-5-5-5-----------------------7---------------|
E|--5-5-5------------------------------------------------------|

G|-------------------------5-----------------------------------|
D|----------5------------7----7-0-3-3--5-7--7-7-7-----5-7p5----|
A|--------7----5--5-5-5--------------------------5h7-------7---|
E|--5-5-5------------------------------------------------------|

G|-------------------------5-----5-----------------------------|
D|----------5-----------7----0-3---7-7-7-7-7-7-7-7-------------|
A|--------7---5--5-5-5-5---------------------------------------|
E|--5-5-5------------------------------------------------------|


3rd Chorus into Outro/2nd solo: (Repeat The Chorus and with some variations):
(5x)

G|-----9----------------------------------------------------------|
D|-------10---10--------5--------3--------------------------------|
A|----------10--------5--------3----------------------------------|
E|---8--------------3-----3--1-----1------------------------------|

G|-----9-----------------------------------------------------------|
D|-------10---10-------5-------3-----------------------------------|
A|----------10-------5-------3---3---------------------------------|
E|---8-------------3-----3-1------1--------------------------------|

G|-------------4------------------------4-5-4--------------------------|
D|--------5------5----------3-----------------5----------3-------------|
A|-----7-----------5------3---3----7-----------(5)------3--------------|
E|---5---------------3--1--------5-----------------3--1-----1----------|

End on: (Let The note Fade until the end)
G|---------------------------------------------------------------|
D|---------------------------------------------------------------|
A|-----3---------------------------------------------------------|
E|---------------------------------------------------------------|

It Sounds Perfect!

Tabbed by: Scott D

            
            
Suggest correction
Creating personal tab
Creating personal tab
You can edit any tab online and save it as your Personal.

You can edit, replace or remove any tab part or add personal notes – all changes will be seen only by you.

Personal tabs can be accessed anytime from any device, even offline.
Learn more »
comments
print report bad tab
2 comments total.
0 reply
FBassman 1,012 May 15, 2007 02:44 PM

Not accurate.

0 reply
Big-T Bassist 40 Jul 13, 2010 10:05 AM

The first part of the chorus is mostly:

|----9-------------------------------|
|-------------10-------5---------3---|
|--------10------10------5-----3-----|
|--8---8----8--------3-----3-1-----1-|

however it changes sometimes during solo.

guest
Wanna post a correction for this tab? Suggest correction