Oops, an error
Loading. Please wait.

Especially In Michigan bass

version 4
version 4
1,496 views 1 this week
4 commentsread comments
1 2 3 4 5
x 5
add to favorites
×
Save as Personal and add changes to this tab that will be seen only by you. Learn more ›
×
You can save this tab as Personal to edit and correct it or add notes. All changes will be seen only by you. Learn more »
launch autoscroll
font size
0
reset
guitar tuner
edit
Autoscroll
slow
fast
+/-
esc
set tempo
stop
Author
----------------------------------------------------------------------------
	      Especially In Michigan - Red Hot Chili Peppers
----------------------------------------------------------------------------

Tabbed By : Da Forrest
e-mail: quackducksfp@hotmail.com

Tuning: stadard tuning: E,A,D,G


Intro:
This part was played very lightly compared to the whole song.
The rhythem is pretty easy to figure out, fast plucking.
G|-16^18181818-1818-1818-1818-|-16^18181818-1818-1818-|--------------|
D|----------------------------|-----------------------|----14^16^14--|
A|----------------------------|-----------------------|--------------|
E|----------------------------|-----------------------|--------------|

G|-16^18181818-1818-1818-1818-|-16^18181818-1818-18181818181818------|
D|-----------------------------|-------------------------------------|
A|-----------------------------|-------------------------------------|
E|-----------------------------|-------------------------------------|

Verse 1: 00:10
G|-------------------------------------------------------------------|
D|-4-444-44----------2-222-22----------------------------------------|
A|----------4-444-44----------2-222-22-------------------------------|
E|-------------------------------------------------------------------| x10

Chorus 1: 00:56
G|-2-2-2-2-2-2-2-2---------------------------------------------------|
D|-----------------2-2-2-2-2-2-2-2--4-4-4-4-4-4-4-6------------------|
A|---------------------------------------------------5-5-5-5-5-5-5-5-|
E|-------------------------------------------------------------------|

G|-2-2-2-2-2-2-2-2---------------------------------------------------|
D|-----------------2-2-2-2-2-2-2-2--4-4-4-4-4-4-4-4------------------|
A|--------------------------------------------------5-5-5-5-5-5-5-5--|
E|-------------------------------------------------------------------|

G|-------------------------------------------------------------------|
D|-------------------------------------------------------------------|
A|-5-5-5-5-5-5-5-5---------------------------------------------------|
E|-------------------------------------------------------------------|

Verse 2: 1:18
G|-------------------------------------------------------------------|
D|-4-444-44----------2-222-22----------------------------------------|
A|----------4-444-44----------2-222-22-------------------------------|
E|-------------------------------------------------------------------| x6

Chorus 2: 1:46
This chorus is varied from the very first chorus
Its harder to hear coz of the distorted guitar
G|-------------------------------------------------------------------|
D|-7-7-7-7--7-7-7-7\2-2-2--2-2-2-2/4-4-4--4-4-4-4\0-0-0--0-0-0-------|
A|-------------------------------------------------------------------|
E|-------------------------------------------------------------------|

G|-------------------------------------------------------------------|
D|-0/7-7-7--7-7-7-7\2-2-2--2-2-2-2/4-4-4--4-4-4-4\0-0-0--0-0-0-0-----|
A|-------------------------------------------------------------------|
E|-------------------------------------------------------------------| x2

Bridge: 2:23
G|-------------------------------------------------------------------|
D|-4-4-4-4-4/7-77-7-7-7/11-111111-1111-11/14-1414-14-14\-------------|
A|-------------------------------------------------------------------|
E|-------------------------------------------------------------------| x2

G|-9/1111-11-11\--------------------------------------------------------|
D|--------------1212-12-12-12/1414-14-1414\-----------------------------|
A|-----------------------------------------1414-14-14\------------------|
E|----------------------------------------------------------------------| x2

G|-------------------------------------------------------------------|
D|-------------------------------------------------------------------|
A|-------------------------------------------------------------------|
E|-2-222-222-222-222-222-222-222-222-222-222-222-222-222-222-222-222-|

Verse 3: 2:51
G|-------------------------------------------------------------------|
D|-4-444-44----------2-222-22----------------------------------------|
A|----------4-444-44----------2-222-22-------------------------------|
E|-------------------------------------------------------------------| x4

Chorus 3: 3:09
This chorus is the same as chorus 2, but it has extra fill ins.
G|-------------------------------------------------------------------|
D|--7-7-7-7--7-7-7-7\2-2-2--2-2-2-2/4-4-4--4-4-4-4\0-0-0--0-0-0------|
A|-------------------------------------------------------------------|
E|-------------------------------------------------------------------|

G|-----------------------------------------------------------7-------|
D|--0/7-7-7--7-7-7-7\2-2-2--2-2-2-2/4-4-4--4-4-4-4\0-0-0/---7-7------|
A|-------------------------------------------------------------------|
E|-------------------------------------------------------------------|

G|-------------------------------------------------------------------|
D|--/7-7-7-7--7-7-7-7\2-2-2--2-2-2-2/4-4-4--4-4-4-4\0-0-0--0-0-0-----|
A|-------------------------------------------------------------------|
E|-------------------------------------------------------------------|

G|-------------------------------------------------------------------|
D|--0/7-7-7--7-7-7-7\2-2-2--2-2-2-2/4-4-4--4-4-4-4\0-0-0--0-0-0-0-0--|
A|-------------------------------------------------------------------|
E|-------------------------------------------------------------------|

G|-------------------------------------------------------------------|
D|-0-0-0--0-0-0------------------------------------------------------|
A|-------------------------------------------------------------------|
E|--------------/2~~~~-----------------------------------------------|

End

This song is kinda fun to play since the bass gives the main chord change for the 
guitar plays more of the back up.ENJOY!!!


| /  slide up
| \  slide down
| ^  hammer-on
| p  pull-off
| ~  vibrato
| +  harmonic
| x  Mute note
============================================================================

            
            
Suggest correction
Creating personal tab
Creating personal tab
You can edit any tab online and save it as your Personal.

You can edit, replace or remove any tab part or add personal notes – all changes will be seen only by you.

Personal tabs can be accessed anytime from any device, even offline.
Learn more »
comments
print report bad tab
4 comments total. Showing first comments.
0 reply
FleaRedHot 10 Apr 01, 2007 05:22 PM

i love it thanks a bunch, i couldnt find anything wrong with it, keep it up

0 reply
FleaRedHot 10 Apr 03, 2007 03:04 PM

oh yeah and this is possibly the easiest peppers song i have played, a bonus cause its fun to play and sounds wicked

0 reply
jakstar 10 Jul 24, 2007 02:23 PM

loli dont think its the easiest. "snow" is much easier

guest
You may want to rate the tab now too:
select rating
Wanna post a correction for this tab? Suggest correction