Oops, an error
Loading. Please wait.

Flea From Rhcp solo bass

15,791 views 6 this week
10 commentsread comments
1 2 3 4 5
x 9
add to favorites
×
Save as Personal and add changes to this tab that will be seen only by you. Learn more ›
×
You can save this tab as Personal to edit and correct it or add notes. All changes will be seen only by you. Learn more »
launch autoscroll
font size
0
reset
guitar tuner
edit
Autoscroll
slow
fast
+/-
esc
set tempo
stop
                         Flea from rhcp Bass Solo

                             * = no slap
0:00   x2
G|---9---|----------------------5h7-|-------------------5-|
D|*--7--*|----------------5-5-------|-------------5-5-----|
A|*-----*|----------5-5-7-----7-----|-------5-5-7-----7---|
E|-------|12\-0-x-x-----------------|-0-x-x---------------|

0:11
G|-------------------5h7-|-------------------|
D|-------------5-5-------|-------------------|
A|-------5-5-7-----7-----|-----------5-5-5h7-|
E|-0-x-x-----------------|-0-x-x-x-x---------|

0:15
G|-------------------5h7-|-------------------5-|
D|-------------5-5-------|-------------5-5-----|
A|-------5-5-7-----7-----|-------5-5-7-----7---|
E|-0-x-x-----------------|-0-x-x---------------|

0:18
G|-------------------5h7-|---------------------|
D|-------------5-5-------|---------------------|
A|-------5-5-7-----7-----|-----------5-5-5-5-5-|
E|-0-x-x-----------------|-0-x-x-x-x-----------|

0:22                    x3
G|-----------------------|-----------|
D|---------------7---7h9-|---10---12-|
A|-----------7h9---9-----|-----------|
E|-7-7-7-7-7-------------|-x----x----|

0:29                             x7
G|--------------------------------|-----------------------|
D|-----12-10----------10----10h12-|-----12-10----------10-|
A|-----------10-10h12----12-------|-----------10-10h12----|
E|-0-x----------------------------|-0-x-------------------|

0:43
G|--------------------------------|--------------------------|
D|-----13-11----------11----11h13-|-----13-11----------13-11-|
A|-----------11-11h13----13-------|-----------11-11h13-------|
E|-0-x----------------------------|-0-x----------------------|

0:46
G|--------------------------------|-----------------------|
D|-----13-11----------11----11h13-|-----13-11----------11-|
A|-----------11-11h13----13-------|-----------11-11h13----|
E|-0-x----------------------------|-0-x-------------------|

0:50                             x3
G|--------------------------------|-----------------------|
D|-----12-10----------10----10h12-|-----12-10----------10-|
A|-----------10-10h12----12-------|-----------10-10h12----|
E|-0-x----------------------------|-0-x-------------------|

0:58                                         x3
G|--5/7-9-7-9-10-9-10-12-10-12-14--|--14b(1)-----|
D|*-------------------------------*|*-----------*|
A|*-------------------------------*|*--------12-*|
E|---------------------------------|-------------|

1:15
G|--------------------------------|-----------------------|
D|-----12-10----------10----10h12-|-----12-10----------10-|
A|-----------10-10h12----12-------|-----------10-10h12----|
E|-0-x----------------------------|-0-x-------------------|

1:19
G|--------------------------------|------------------------------|
D|-----12-10----------10----10h12-|-----12-10--------------10h12-|
A|-----------10-10h12----12-------|-----------10-10h12-----------|
E|-0-x----------------------------|-0-x----------------0-0-------|

1:22                             x3
G|--------------------------------|---------------------------|
D|-----12-10----------10----10h12-|-----12-10----------10b(1)-|
A|-----------10-10h12----12-------|-----------10-10h12--------|
E|-0-x----------------------------|-0-x-----------------------|

1:33
G|--5h7---------2-0-3---7-5-----0-3-2-----------7-0-3---3-2-0-7-5--------|
D|*-----0-2-3-0-------0-----2-3-------0-3-5-3-0-------0-----------3-2-0-*|
A|*---------------------------------------------------------------------*|
E|-----------------------------------------------------------------------|

1:54
G|----3-2-0-7-5-2-3-------7-5-2-3-2---7-5-2-0-3-2-0-------3-2-0-7-5-3-2-0--------|
D|*-0---------------0-3-2-----------0---------------3-2-0-----------------3-2-0-*|
A|*-----------------------------------------------------------------------------*|
E|-------------------------------------------------------------------------------|

2:07 x?
G|-----|---------|--9---|
D|-----|*-------*|*-7-*-|
A|-----|*-7b(1)-*|*---*-|
E|-0-0-|---------|------|

2:22                                          x3
G|-------------------5h7-|-------------------5-|
D|-------------5-5-------|-------------5-5-----|
A|-------5-5-7-----7-----|-------5-5-7-----7---|
E|-0-x-x-----------------|-0-x-x---------------|

2:32
G|-------------------5h7-|-----------------|
D|-------------5-5-------|-----------------|
A|-------5-5-7-----7-----|---------5-5h7---|
E|-0-x-x-----------------|-0-x-x-x-------5-|

            
            
Suggest correction
Creating personal tab
Creating personal tab
You can edit any tab online and save it as your Personal.

You can edit, replace or remove any tab part or add personal notes – all changes will be seen only by you.

Personal tabs can be accessed anytime from any device, even offline.
Learn more »
comments
print report bad tab
10 comments total. Showing first comments.
0 reply
666THEMAN666 10 Mar 06, 2004 07:00 PM

amazing tab, now i try and learn it! *****

0 reply
tiftcte 595 Mar 20, 2004 07:00 PM

gd all though i find this easier

2:07 x?
G|-----|---------|--9---|
D|-----|*-2b(1)-*|*-7-*-|
A|-----|*-------*|*---*-|
E|-0-0-|---------|------|

2:22 x3
G|-------------0-0---5h7-|-------------0-0---5-|
D|-------0-0-2-----2-----|-------0-0-2-----2---|
A|-----------------------|---------------------|
E|-0-x-x-----------------|-0-x-x---------------|

2:32
G|-------------0-0---5h7-|-----------------|
D|-------0-0-2-----2-----|---------0-0h2---|
A|-----------------------|---------------0-|
E|-0-x-x-----------------|-0-x-x-x---------|

0 reply
tiftcte 595 Mar 20, 2004 07:00 PM

GREAT TAB BTW!

guest
Wanna post a correction for this tab? Suggest correction