Oops, an error
Loading. Please wait.

Fortune Faded tab

version 7
version 7

Whole song

1,576 views 1 this week
no commentswrite comment
1 2 3 4 5
2 more votes to show rating
add to favorites
×
Save as Personal and add changes to this tab that will be seen only by you. Learn more ›
×
You can save this tab as Personal to edit and correct it or add notes. All changes will be seen only by you. Learn more »
launch autoscroll
font size
0
reset
how to read this tab
guitar tuner
backing track
0:00
0:00
edit
Autoscroll
slow
fast
+/-
esc
set tempo
stop
Author
Unregistered
Tabbed By: Brandon B
Email: Brandon_Bordignon@hotmail.com

Tuning: standard eBGDAE

"Easy and fun song to play" - Brandon


Intro
Guitar 2 (00:00)
e|---------------------------------------------------------------------------
B|---------------------------------------------------------------------------
G|---------------------------------------------------------------------------
D|-4444444444----------------------------------------------------------------
A|-4444444444----------------------------------------------------------------
E|-2222222222----------------------------------------------------------------

Guitar 1 (00:05)
e|---------------------------------------------------------------------------
B|---------------------------------------------------------------------------
G|---------------------------------------------------------------------------
D|---------------------------------------------------------------------------
A|---------------------------------------------------------------------------
E|-99999999-14141414141414---------------------------------------------------

Verse 1
(Guitar 1) (00:08)
e|---------------------------------------------------------------------------
B|----------------------------------------14-14-14---------------------------
G|----11-------11-------14-11-14-11-14-11------------------------------------
D|--9----11-9-9----11-9-------------------------------------------------------
A|---------------------------------------------------------------------------
E|---------------------------------------------------------------------------


(Guitar 2) (00:08)
e|---------------------------------------------------------------------------
B|---------------------------------------------------------------------------
G|---------------------------------------------------------------------------
D|--99xx99xx99xx99xx---12121212--7777777-------------------------------------
A|--99xx99xx99xx99xx---12121212--7777777-------------------------------------
E|--77xx77xx77xx77xx---10101010--5555555-------------------------------------

(Guitar 1) (00:16)
e|---------------------------------------------------------------------------
B|---------------------------------------------------------------------------
G|----11-------11-------14--11--14--11\--------------------------------------
D|--9----9-9-9----11-9-------------------------------------------------------
A|---------------------------------------------------------------------------
E|---------------------------------------------------------------------------

(Guitar 2) (00:16)
e|---------------------------------------------------------------------------
B|---------------------------------------------------------------------------
G|---------------------------------------------------------------------------
D|--99xx99xx99xx99xx---12121212--7777777-------------------------------------
A|--99xx99xx99xx99xx---12121212--7777777-------------------------------------
E|--77xx77xx77xx77xx---10101010--5555555-------------------------------------

Vocals come in
(Guitar 2) (00:24)
e|---------------------------------------------------------------------------
B|---------------------------------------------------------------------------
G|---------------------------------------------------------------------------
D|--99xx99xx99xx99xx---12121212--7777777-------------------------------------
A|--99xx99xx99xx99xx---12121212--7777777-------------------------------------
E|--77xx77xx77xx77xx---10101010--5555555-------------------------------------

e|---------------------------------------------------------------------------
B|---------------------------------------------------------------------------
G|---------------------------------------------------------------------------
D|--99xx99xx99xx99xx---12121212--7777777-------------------------------------
A|--99xx99xx99xx99xx---12121212--7777777-------------------------------------
E|--77xx77xx77xx77xx---10101010--5555555-------------------------------------

verse 2
(Guitar 1) (00:41)
e|---------------------------------------------------------------------------
B|---------------------------------------------------------------------------
G|----11-------11-------14--11--14--11\--------------------------------------
D|--9----9-9-9----11-9-------------------------------------------------------
A|---------------------------------------------------------------------------
E|---------------------------------------------------------------------------

(Guitar 2) (00:41)
e|---------------------------------------------------------------------------
B|---------------------------------------------------------------------------
G|---------------------------------------------------------------------------
D|--99xx99xx99xx99xx---12121212--7777777-------------------------------------
A|--99xx99xx99xx99xx---12121212--7777777-------------------------------------
E|--77xx77xx77xx77xx---10101010--5555555-------------------------------------

Vocals come in
(Guitar 2) (00:48)
e|---------------------------------------------------------------------------
B|---------------------------------------------------------------------------
G|---------------------------------------------------------------------------
D|--99xx99xx99xx99xx---12121212--7777777-------------------------------------
A|--99xx99xx99xx99xx---12121212--7777777-------------------------------------
E|--77xx77xx77xx77xx---10101010--5555555-------------------------------------

e|---------------------------------------------------------------------------
B|---------------------------------------------------------------------------
G|---------------------------------------------------------------------------
D|--99xx99xx99xx99xx---12121212--7777777-------------------------------------
A|--99xx99xx99xx99xx---12121212--7777777-------------------------------------
E|--77xx77xx77xx77xx---10101010--5555555-------------------------------------

verse 3
(Guitar 1) (01:05)
e|---------------------------------------------------------------------------
B|---------------------------------------------------------------------------
G|----11-------11-------14-11-14-11-14-11--14-11-14-11-14-11-----------------
D|--9----9-9-9----11-9-------------------------------------------------------
A|---------------------------------------------------------------------------
E|---------------------------------------------------------------------------

(Guitar 2) (01:05)
e|---------------------------------------------------------------------------
B|---------------------------------------------------------------------------
G|---------------------------------------------------------------------------
D|--99xx99xx99xx99xx---12121212--7777777-------------------------------------
A|--99xx99xx99xx99xx---12121212--7777777-------------------------------------
E|--77xx77xx77xx77xx---10101010--5555555-------------------------------------

Chorus x2
(Guitar 2) (01:13)

e|---------------------------------------------------------------------------
B|---------------------------------------------------------------------------
G|---------------------------------------------------------------------------
D|9-9-9--1275-5-5-5-9-9-9-9-7-7-7-7------------------------------------------
A|9-9-9--1275-5-5-5-9-9-9-9-7-7-7-7------------------------------------------
E|7-7-7--1053-3-3-3-7-7-7-7-5-5-5-5------------------------------------------

Verse 1
(Guitar 1) (01:29)
e|---------------------------------------------------------------------------
B|----------------------------------------14-14-14---------------------------
G|----11-------11-------14-11-14-11-14-11------------------------------------
D|--9----9-9-9----11-9-------------------------------------------------------
A|---------------------------------------------------------------------------
E|---------------------------------------------------------------------------


(Guitar 2) (01:29)
e|---------------------------------------------------------------------------
B|---------------------------------------------------------------------------
G|---------------------------------------------------------------------------
D|--99xx99xx99xx99xx---12121212--7777777-------------------------------------
A|--99xx99xx99xx99xx---12121212--7777777-------------------------------------
E|--77xx77xx77xx77xx---10101010--5555555-------------------------------------

(Guitar 1) (01:37)
e|---------------------------------------------------------------------------
B|---------------------------------------------------------------------------
G|----11-------11-------14--11--14--11\--------------------------------------
D|--9----9-9-9----11-9-------------------------------------------------------
A|---------------------------------------------------------------------------
E|---------------------------------------------------------------------------

(Guitar 2) (01:37)
e|---------------------------------------------------------------------------
B|---------------------------------------------------------------------------
G|---------------------------------------------------------------------------
D|--99xx99xx99xx99xx---12121212--7777777-------------------------------------
A|--99xx99xx99xx99xx---12121212--7777777-------------------------------------
E|--77xx77xx77xx77xx---10101010--5555555-------------------------------------

Vocals come in
(Guitar 2) (01:45)
e|---------------------------------------------------------------------------
B|---------------------------------------------------------------------------
G|---------------------------------------------------------------------------
D|--99xx99xx99xx99xx---12121212--7777777-------------------------------------
A|--99xx99xx99xx99xx---12121212--7777777-------------------------------------
E|--77xx77xx77xx77xx---10101010--5555555-------------------------------------

e|---------------------------------------------------------------------------
B|---------------------------------------------------------------------------
G|---------------------------------------------------------------------------
D|--99xx99xx99xx99xx---12121212--7777777-------------------------------------
A|--99xx99xx99xx99xx---12121212--7777777-------------------------------------
E|--77xx77xx77xx77xx---10101010--5555555-------------------------------------

verse 3
(Guitar 1) (02:01)
e|---------------------------------------------------------------------------
B|---------------------------------------------------------------------------
G|----11-------11-------14-11-14-11-14-11--14-11-14-11-14-11-----------------
D|--9----9-9-9----11-9-------------------------------------------------------
A|---------------------------------------------------------------------------
E|---------------------------------------------------------------------------

(Guitar 2) (02:01)
e|---------------------------------------------------------------------------
B|---------------------------------------------------------------------------
G|---------------------------------------------------------------------------
D|--99xx99xx99xx99xx---12121212--7777777-------------------------------------
A|--99xx99xx99xx99xx---12121212--7777777-------------------------------------
E|--77xx77xx77xx77xx---10101010--5555555-------------------------------------

Chorus x2
(Guitar 2) (02:09)

e|---------------------------------------------------------------------------
B|---------------------------------------------------------------------------
G|---------------------------------------------------------------------------
D|9-9-9--1275-5-5-5-9-9-9-9-7--7--7--7---------------------------------------
A|9-9-9--1275-5-5-5-9-9-9-9-7--7--7--7---------------------------------------
E|7-7-7--1053-3-3-3-7-7-7-7-5--5--5--5---------------------------------------

Palm Mute (lightly)
(Guitar 2) (02:25)
e|---------------------------------------------------------------------------
B|---------------------------------------------------------------------------
G|---------------------------------------------------------------------------
D|--99xx99xx99xx99xx---12121212--7777777-------------------------------------
A|--99xx99xx99xx99xx---12121212--7777777-------------------------------------
E|--77xx77xx77xx77xx---10101010--5555555-------------------------------------

e|---------------------------------------------------------------------------
B|---------------------------------------------------------------------------
G|---------------------------------------------------------------------------
D|--99xx129xx99xx149xx---12121212--7777777-----------------------------------
A|--99xx129xx99xx149xx---12121212--7777777-----------------------------------
E|--77xx107xx77xx127xx---10101010--5555555-----------------------------------

Guitar 2 (02:41)
e|---------------------------------------------------------------------------
B|---------------------------------------------------------------------------
G|---------------------------------------------------------------------------
D|-4444444444----------------------------------------------------------------
A|-4444444444----------------------------------------------------------------
E|-2222222222----------------------------------------------------------------

Chorus x2
(Guitar 2) (02:49)

e|---------------------------------------------------------------------------
B|---------------------------------------------------------------------------
G|---------------------------------------------------------------------------
D|9-9-9--1275-5-5-5-9-9-9-9-7--7--7--7---------------------------------------
A|9-9-9--1275-5-5-5-9-9-9-9-7--7--7--7---------------------------------------
E|7-7-7--1053-3-3-3-7-7-7-7-5--5--5--5---------------------------------------



Tabbed By Brandon B

| /  slide up
| \  slide down
| h  hammer-on
| p  pull-off
| ~  vibrato
| +  harmonic
| x  Mute note
========================================================
Suggest correction
Creating personal tab
Creating personal tab
You can edit any tab online and save it as your Personal.

You can edit, replace or remove any tab part or add personal notes – all changes will be seen only by you.

Personal tabs can be accessed anytime from any device, even offline.
Learn more »
Give kudos to tab author, rate the tab!
1 2 3 4 5
comments
print report bad tab
guest
Wanna post a correction for this tab? Suggest correction