Oops, an error
Loading. Please wait.

Fortune Faded tab

version 8
version 8

Whole song

82 views 1 this week
no commentswrite comment
1 2 3 4 5
2 more votes to show rating
add to favorites
×
Save as Personal and add changes to this tab that will be seen only by you. Learn more ›
×
You can save this tab as Personal to edit and correct it or add notes. All changes will be seen only by you. Learn more »
launch autoscroll
font size
0
reset
how to read this tab
guitar tuner
backing track
0:00
0:00
edit
Autoscroll
slow
fast
+/-
esc
set tempo
stop
Author
Difficulty
[Intro]

e|-----------|
B|-----------|
G|--3-3-3-3--|
D|--4-4-4-4--|
A|--4-4-4-4--|
E|--2-2-2-2--|
(repeat it 16 times)

[Verse]


e|-------------------------------------------------9-9-9----|
B|-----------------------------10----10----10---------------|
G|------11----------11------------11----11----11------------|
D|--9------11---9-9----11-9---------------------------------|
A|----------------------------------------------------------|
E|----------------------------------------------------------|

e|----------------------------------------------------------|
B|------------------------------10------------10------------|
G|-----11----------11------------------11------------11\----|
D|--9-----11---9-9----11-9----------------------------------|
A|----------------------------------------------------------|
E|----------------------------------------------------------|

e|-------------------------------------------------------------------------|
B|---------x-x-x-x-x---------14-14-14-14---14-14--14-14--------------------|
G|---------7-x-7-x-7---------14-14-14-14---14-14--14-14--------------------|
D|---------7-x-7-x-7---------14-14-14-14---14-14--14-14--------------------|
A|---------5-x-5-x-5---------12-12-12-12---12-12--12-12--------------------|
E|-------------------------------------------------------------------------|

e|-------------------------------------------------------------------------|
B|---------x-x-x-x-x---------14-14-14-14---14-14--14-14--------------------|
G|---------7-x-7-x-7---------14-14-14-14---14-14--14-14--------------------|
D|---------7-x-7-x-7---------14-14-14-14---14-14--14-14--------------------|
A|---------5-x-5-x-5---------12-12-12-12---12-12--12-12--------------------|
E|-------------------------------------------------------------------------|

e|----------------------------------------------------------|
B|------------------------------10------------10------------|
G|-----11----------11------------------11------------11\----|
D|--9-----11---9-9----11-9----------------------------------|
A|----------------------------------------------------------|
E|----------------------------------------------------------|

e|-------------------------------------------------------------------------|
B|---------x-x-x-x-x---------14-14-14-14---14-14--14-14--------------------|
G|---------7-x-7-x-7---------14-14-14-14---14-14--14-14--------------------|
D|---------7-x-7-x-7---------14-14-14-14---14-14--14-14--------------------|
A|---------5-x-5-x-5---------12-12-12-12---12-12--12-12--------------------|
E|-------------------------------------------------------------------------|

e|-------------------------------------------------------------------------|
B|---------x-x-x-x-x---------14-14-14-14---14-14--14-14--------------------|
G|---------7-x-7-x-7---------14-14-14-14---14-14--14-14--------------------|
D|---------7-x-7-x-7---------14-14-14-14---14-14--14-14--------------------|
A|---------5-x-5-x-5---------12-12-12-12---12-12--12-12--------------------|
E|-------------------------------------------------------------------------|

e|--------------------------------------------------------------------|
B|-----------------------------10----10----10-------10----10----10----|
G|------11----------11------------11----11----11-------11----11----11-|
D|--9------11---9-9----11-9-------------------------------------------|
A|--------------------------------------------------------------------|
E|--------------------------------------------------------------------|

[Ref]

e|-5-5-5-5-5-----5-5----3-3-3-3-3-3-3-3-3-----7-7-7-7-7-7-7-7-7-7-7-7-7-7-7-7-7--|
B|-5-5-5-5-5-----7-5----3-3-3-3-3-3-3-3-3-----7-7-7-7-7-7-7-7-7-7-7-7-7-7-7-7-7--|
G|-6-6-6-6-6-----7-6----4-4-4-4-4-4-4-4-4-----7-7-9-7-7-7-7-7-7-7-7-7-7-7-7-7-7--|
D|-7-7-7-7-7-----7-7----5-5-5-5-5-5-5-5-5-----9-9-9-9-9-9-9-9-9-9-9-9-9-9-9-9-9--|
A|-7-7-7-7-7-----5-7----5-5-5-5-5-5-5-5-5-----9-9-9-9-9-9-9-9-9-9-9-9-9-9-9-9-9--|
E|-5-5-5-5-5-------5----3-3-3-3-3-3-3-3-3-----7-7-7-7-7-7-7-7-7-7-7-7-7-7-7-7-7--|


e|-5-5-5-5-5-----5-5----3-3-3-3-3-3-3-3-3-----7-7-7-7-7----7-7-7---7-7-7---|
B|-5-5-5-5-5-----7-5----3-3-3-3-3-3-3-3-3-----7-7-7-7-7----7-7-7---7-7-7---|
G|-6-6-6-6-6-----7-6----4-4-4-4-4-4-4-4-4-----7-7-7-7-7----7-7-7---7-7-7---|
D|-7-7-7-7-7-----7-7----5-5-5-5-5-5-5-5-5-----9-9-9-9-9----9-9-9---9-9-9---|
A|-7-7-7-7-7-----5-7----5-5-5-5-5-5-5-5-5-----9-9-9-9-9----9-9-9---9-9-9---|
E|-5-5-5-5-5-------5----3-3-3-3-3-3-3-3-3-----7-7-7-7-7----7-7-7---7-7-7---|

[Verse]

e|-------------------------------------------------9-9-9----|
B|-----------------------------10----10----10---------------|
G|------11----------11------------11----11----11------------|
D|--9------11---9-9----11-9---------------------------------|
A|----------------------------------------------------------|
E|----------------------------------------------------------|

e|----------------------------------------------------------|
B|------------------------------10------------10------------|
G|-----11----------11------------------11------------11\----|
D|--9-----11---9-9----11-9----------------------------------|
A|----------------------------------------------------------|
E|----------------------------------------------------------|


e|-------------------------------------------------------------------------|
B|---------x-x-x-x-x---------14-14-14-14---14-14--14-14--------------------|
G|---------7-x-7-x-7---------14-14-14-14---14-14--14-14--------------------|
D|---------7-x-7-x-7---------14-14-14-14---14-14--14-14--------------------|
A|---------5-x-5-x-5---------12-12-12-12---12-12--12-12--------------------|
E|-------------------------------------------------------------------------|


e|-------------------------------------------------------------------------|
B|---------x-x-x-x-x---------14-14-14-14---14-14--14-14--------------------|
G|---------7-x-7-x-7---------14-14-14-14---14-14--14-14--------------------|
D|---------7-x-7-x-7---------14-14-14-14---14-14--14-14--------------------|
A|---------5-x-5-x-5---------12-12-12-12---12-12--12-12--------------------|
E|-------------------------------------------------------------------------|

e|-------------------------------------------------------------------|
B|-----------------------------10----10----10------10----10----10----|
G|------11----------11------------11----11----11------11----11----11-|
D|--9------11---9-9----11-9------------------------------------------|
A|-------------------------------------------------------------------|
E|-------------------------------------------------------------------|

[Ref]

e|-5-5-5-5-5-----5-5----3-3-3-3-3-3-3-3-3-----7-7-7-7-7-7-7-7-7-7-7-7-7-7-7-7-7--|
B|-5-5-5-5-5-----7-5----3-3-3-3-3-3-3-3-3-----7-7-7-7-7-7-7-7-7-7-7-7-7-7-7-7-7--|
G|-6-6-6-6-6-----7-6----4-4-4-4-4-4-4-4-4-----7-7-9-7-7-7-7-7-7-7-7-7-7-7-7-7-7--|
D|-7-7-7-7-7-----7-7----5-5-5-5-5-5-5-5-5-----9-9-9-9-9-9-9-9-9-9-9-9-9-9-9-9-9--|
A|-7-7-7-7-7-----5-7----5-5-5-5-5-5-5-5-5-----9-9-9-9-9-9-9-9-9-9-9-9-9-9-9-9-9--|
E|-5-5-5-5-5-------5----3-3-3-3-3-3-3-3-3-----7-7-7-7-7-7-7-7-7-7-7-7-7-7-7-7-7--|

e|-5-5-5-5-5-----5-5----3-3-3-3-3-3-3-3-3-----7-7-7-7-7----7-7-7---7-7-7---|
B|-5-5-5-5-5-----7-5----3-3-3-3-3-3-3-3-3-----7-7-7-7-7----7-7-7---7-7-7---|
G|-6-6-6-6-6-----7-6----4-4-4-4-4-4-4-4-4-----7-7-7-7-7----7-7-7---7-7-7---|
D|-7-7-7-7-7-----7-7----5-5-5-5-5-5-5-5-5-----9-9-9-9-9----9-9-9---9-9-9---|
A|-7-7-7-7-7-----5-7----5-5-5-5-5-5-5-5-5-----9-9-9-9-9----9-9-9---9-9-9---|
E|-5-5-5-5-5-------5----3-3-3-3-3-3-3-3-3-----7-7-7-7-7----7-7-7---7-7-7---|

[Bas solo]

[Bridge]

e|-----------|
B|-----------|
G|--3-3-3-3--|
D|--4-4-4-4--|
A|--4-4-4-4--|
E|--2-2-2-2--|
(repeat it 16 times)
[Ref]

e|-5-5-5-5-5-----5-5----3-3-3-3-3-3-3-3-3-----7-7-7-7-7-7-7-7-7-7-7-7-7-7-7-7-7--|
B|-5-5-5-5-5-----7-5----3-3-3-3-3-3-3-3-3-----7-7-7-7-7-7-7-7-7-7-7-7-7-7-7-7-7--|
G|-6-6-6-6-6-----7-6----4-4-4-4-4-4-4-4-4-----7-7-9-7-7-7-7-7-7-7-7-7-7-7-7-7-7--|
D|-7-7-7-7-7-----7-7----5-5-5-5-5-5-5-5-5-----9-9-9-9-9-9-9-9-9-9-9-9-9-9-9-9-9--|
A|-7-7-7-7-7-----5-7----5-5-5-5-5-5-5-5-5-----9-9-9-9-9-9-9-9-9-9-9-9-9-9-9-9-9--|
E|-5-5-5-5-5-------5----3-3-3-3-3-3-3-3-3-----7-7-7-7-7-7-7-7-7-7-7-7-7-7-7-7-7--|


e|-5-5-5-5-5-----5-5----3-3-3-3-3-3-3-3-3-----7-7-7-7-7----7-7-7---7-7-7---|
B|-5-5-5-5-5-----7-5----3-3-3-3-3-3-3-3-3-----7-7-7-7-7----7-7-7---7-7-7---|
G|-6-6-6-6-6-----7-6----4-4-4-4-4-4-4-4-4-----7-7-7-7-7----7-7-7---7-7-7---|
D|-7-7-7-7-7-----7-7----5-5-5-5-5-5-5-5-5-----9-9-9-9-9----9-9-9---9-9-9---|
A|-7-7-7-7-7-----5-7----5-5-5-5-5-5-5-5-5-----9-9-9-9-9----9-9-9---9-9-9---|
E|-5-5-5-5-5-------5----3-3-3-3-3-3-3-3-3-----7-7-7-7-7----7-7-7---7-7-7---|

e|-5-5-5-5-5-----5-5----3-3-3-3-3-3-3-3-3-----7-7-7-7-7-7-7-7-7-7-7-7-7-7-7-7-7--|
B|-5-5-5-5-5-----7-5----3-3-3-3-3-3-3-3-3-----7-7-7-7-7-7-7-7-7-7-7-7-7-7-7-7-7--|
G|-6-6-6-6-6-----7-6----4-4-4-4-4-4-4-4-4-----7-7-9-7-7-7-7-7-7-7-7-7-7-7-7-7-7--|
D|-7-7-7-7-7-----7-7----5-5-5-5-5-5-5-5-5-----9-9-9-9-9-9-9-9-9-9-9-9-9-9-9-9-9--|
A|-7-7-7-7-7-----5-7----5-5-5-5-5-5-5-5-5-----9-9-9-9-9-9-9-9-9-9-9-9-9-9-9-9-9--|
E|-5-5-5-5-5-------5----3-3-3-3-3-3-3-3-3-----7-7-7-7-7-7-7-7-7-7-7-7-7-7-7-7-7--|

e|-5-5-5-5-5-----5-5----3-3-3-3-3-3-3-3-3-----7-7-7-7-7----7-7-7-----|
B|-5-5-5-5-5-----7-5----3-3-3-3-3-3-3-3-3-----7-7-7-7-7----7-7-7-----|
G|-6-6-6-6-6-----7-6----4-4-4-4-4-4-4-4-4-----7-7-7-7-7----7-7-7-----|
D|-7-7-7-7-7-----7-7----5-5-5-5-5-5-5-5-5-----9-9-9-9-9----9-9-9-----|
A|-7-7-7-7-7-----5-7----5-5-5-5-5-5-5-5-5-----9-9-9-9-9----9-9-9-----|
E|-5-5-5-5-5-------5----3-3-3-3-3-3-3-3-3-----7-7-7-7-7----7-7-7-----|



************************************

| x   Dead note
| \   Slide down

Suggest correction
Creating personal tab
Creating personal tab
You can edit any tab online and save it as your Personal.

You can edit, replace or remove any tab part or add personal notes – all changes will be seen only by you.

Personal tabs can be accessed anytime from any device, even offline.
Learn more »
Give kudos to tab author, rate the tab!
1 2 3 4 5
comments
print report bad tab
guest
You may want to rate the tab now too:
select rating
Wanna post a correction for this tab? Suggest correction