Oops, an error
Loading. Please wait.

Funky Monks bass

version 4
version 4

Whole song

Interactive

1,032 views 1 this week
1 commentread comment
1 2 3 4 5
2 more votes to show rating
add to favorites
×
Save as Personal and add changes to this tab that will be seen only by you. Learn more ›
×
You can save this tab as Personal to edit and correct it or add notes. All changes will be seen only by you. Learn more »
launch autoscroll
font size
0
reset
guitar tuner
backing track
0:00
0:00
edit
Autoscroll
slow
fast
+/-
esc
set tempo
stop
Author
Difficulty
RHCP - Funky Monks - Flea
BLOOD SUGAR SEX MAGIK
Bass Arrangement - 4 strings
Standard Tunning (EADG)

Please rate and comment !

     W                   W                   W                   W                 
G||-------------------|-------------------|-------------------|-------------------|
D||-------------------|-------------------|-------------------|-------------------|
A||-------------------|-------------------|-------------------|-------------------|
E||-------------------|-------------------|-------------------|-------------------|


  E  Q    E  E  E  S E  S    E  Q    E  E  E  S E  S    E  Q    E  E  E  S E  S  
--------------------------|--------------------------|--------------------------|
--------------------------|--------------------------|--------------------------|
--------------------------|--------------------------|--------------------------|
--3-------3-----3--x-3----|--3-------3-----3--x-3----|--3-------3-----3--x-3----|


  E  Q    E  E  E  S E  S    E  Q    E  E  E  S E  S    E  Q    E  E  E  S E  S  
--------------------------|--------------------------|--------------------------|
--------------------------|--------------------------|--------------------------|
--------------------------|--------------------------|--------------------------|
--3-------3-----3--x-3----|--3-------3-----3--x-3----|--3-------3-----3--x-3----|


  E  Q    E  E  E  S E  S    E  Q    E  E  E  S E  S    E  Q    E  E  E  S E  S  
--------------------------|--------------------------|--------------------------|
--------------------------|--------------------------|--------------------------|
--------------------------|--------------------------|--------------------------|
--3-------3-----3--x-3----|--3-------3-----3--x-3----|--3-------3-----3--x-3----|


  E  Q    E  E  E  S E  S    E  Q    E  E  E  S E  S    E  Q    E  S S S S S  S E   
--------------------------|--------------------------|-----------------------------|
--------------------------|--------------------------|-----------------------------|
--------------------------|--------------------------|---------------------3h-5----|
--3-------3-----3--x-3----|--3-------3-----3--x-3----|--3-------3--x-3---3------1--|


  E  Q    E  E  E  S E  S    E  Q    E  E  E  S E  S    E  Q    E  E  E  S E  S  
--------------------------|--------------------------|--------------------------|
--------------------------|--------------------------|--------------------------|
--------------------------|--------------------------|--------------------------|
--3-------3-----3--x-3----|--3-------3-----3--x-3----|--3-------3-----3--x-3----|


  E  Q    E  E  E  S E  S    E  Q    E  E  E  S E.     E  Q    E  E  E  S E.   
--------------------------|-------------------------|-------------------------|
--------------------------|-------------------------|-------------------------|
--------------------------|-------------------------|-------------------------|
--3-------3-----3--x-3----|--3-------3-----3--x-1---|--3-------3-----3--x-1---|


  E  Q    E  E  E  S E  S    E  S S S S S S S  S S S S S S S  
--------------------------|----------------------------------|
--------------------------|----------------------3-----------|
--------------------------|-----------------3h-5---3-5-3-1---|
--3-------3-----3--x-3----|--3----3-1---1------------------3-|


  S S S S S S S S S S S S E  S S    S S S S S S S S S S S S Q     
---------------------------------|-------------------------------|
---------------------------------|-------------------------------|
---------------------------------|------------------5---5---3----|
--5---5---3---3---1---1---0--x-1-|----1-1-1-0---0----------------|


  S S S S S S S S S S S S E  S S    S S S S S S E  S S S S S S S S  
---------------------------------|---------------------------------|
---------------------------------|---------------------------------|
---------------------------------|-----------------3---3---2---2---|
--5---5---3---3---1---1---0--x-1-|----1-1-1-0---0------------------|


  S S S S S S S S S S S S E  S S    S S S S S S S S S S S S Q     
---------------------------------|-------------------------------|
---------------------------------|-------------------------------|
---------------------------------|-------------------------------|
--5---5---3---3---1---1---0--x-1-|----1-1-1-0--------------------|


  S S S S S S S S S S S S E  E     S E.  S S S S  E  S S S S S S    E  Q.      
--------------------------------|--------------------------------|------------|
--------------------------------|--------------------------------|------------|
--------------------------------|----5---3-----5s-6--5-3-5-3-----|------------|
--5---5---3---3---1---1---0-----|----------5-----------------5-3-|--5---------|


  E  Q    E  E  E  S E  S    E  Q    E  E  E  S E  S    E  Q    E  E  E  S E  S  
--------------------------|--------------------------|--------------------------|
--------------------------|--------------------------|--------------------------|
--------------------------|--------------------------|--------------------------|
--3-------3-----3--x-3----|--3-------3-----3--x-3----|--3-------3-----3--x-3----|


  E  Q    E  S S S S S  S E     E  Q    E  E  E  S E  S    E  Q    E  E  E  S E  S  
-----------------------------|--------------------------|--------------------------|
-----------------------------|--------------------------|--------------------------|
---------------------3h-5----|--------------------------|--------------------------|
--3-------3--x-3---3------1--|--3-------3-----3--x-3----|--3-------3-----3--x-3----|


  E  Q    E  E  E  S E  S    E  E.  S S S S S S S S S S S    E  Q    E  E  E  S E  S  
--------------------------|-------------------------------|--------------------------|
--------------------------|-------------------------------|--------------------------|
--------------------------|---------------1---1-----------|--------------------------|
--3-------3-----3--x-3----|--3------3---1---------5---5---|--3-------3-----3--x-3----|


  E  Q    E  E  E  S E  S    E  Q    E  E  E  S E  S    E  Q    E  S S S S S T  T E   
--------------------------|--------------------------|-------------------------------|
--------------------------|--------------------------|-------------------------------|
--------------------------|--------------------------|-----------------------3h-5----|
--3-------3-----3--x-3----|--3-------3-----3--x-3----|--3-------3--x-3---1-3------1--|


  E  Q    E  E  E  S E  S    E  Q    E  E  E  S E  S    E  Q    E  E  E  S E  S  
--------------------------|--------------------------|--------------------------|
--------------------------|--------------------------|--------------------------|
--------------------------|--------------------------|--------------------------|
--3-------3-----3--x-3----|--3-------3-----3--x-3----|--3-------3-----3--x-3----|


  S S S S S S S S S S S S Q       S S S S S S S S S S S S E  S S  
-------------------------------|---------------------------------|
-------------------------------|---------------------------------|
------------------5---7---6----|---------------------------------|
--3---3---1---1----------------|--5---5---3---3---1---1---0--x-1-|


  S S S S S S S S S S S S Q       S S S S S S S S S S S S E  S S  
-------------------------------|---------------------------------|
-------------------------------|---------------------------------|
--------------7---5---5---6----|---------------------------------|
----1-1-1-0--------------------|--5---5---3---3---1---1---0--x-1-|


  S S S S S S E  S S S S S S S S    S S S S S S S S S S S S E  S S  
---------------------------------|---------------------------------|
---------------------------------|---------------------------------|
-----------------3---3---2---2---|---------------------------------|
----1-1-1-0----------------------|--5---5---3---3---1---1---0--x-1-|


  S S S S S S S S S S S S Q       S S S S S S S S S S S S E  E   
-------------------------------|--------------------------------|
-------------------------------|--------------------------------|
--------------7---5---5---6----|--------------------------------|
----1-1-1-0--------------------|--5---5---3---3---1---1---0-----|


  S E.  S S S S  E  S S S S S S    E  H        Q.        S  E  S S S E  E  E  E  E   
--------------------------------|---------------------|-----------------------------|
--------------------------------|---------------------|--------6---5-7--------7--6--|
----5---3-----5s-6--5-3-5-3-----|---------------------|-----------------------------|
----------5-----------------5-3-|--5------------------|--5h-7-----------5--7--------|


  S  E  S S S S S S S S S Q       S  E  S S S E  E  E  E  E   
-------------------------------|-----------------------------|
--------6---5-7----------------|--------6---5-7--------7--6--|
----------------5-8---7---5----|-----------------------------|
--5h-7-------------------------|--5h-7-----------5--7--------|


                 |--3--|                                         
  S  E  S S S E  S  S  S E  E  E     S  E  S S S E  E  E  E  E   
----------------------------------|-----------------------------|
--------6---5-7--2h-3p-2-0--3--2--|--------6---5-7--------7--6--|
----------------------------------|-----------------------------|
--5h-7----------------------------|--5h-7-----------5--7--------|


  S  E  S S S S S S S S S Q       S  E  S S S E  E  E  E  E   
-------------------------------|-----------------------------|
--------6---5-7----------------|--------6---5-7--------7--6--|
----------------5-8---7---5----|-----------------------------|
--5h-7-------------------------|--5h-7-----------5--7--------|


  S  E  S S S S S S S S S Q       S  E  S S S E  E   E  E  E   
-------------------------------|------------------------------|
--------6---5-7----------------|------------------------------|
----------------5-8---7---5----|--3h-5--2---1-3--3h--5--3--2--|
--5h-7-------------------------|------------------------------|


  S  E  S S S S S S S S S Q       S  E  S S S E  E   E  E  E   
-------------------------------|------------------------------|
-------------------------------|------------------------------|
--3h-5--2---1-3----------------|--3h-5--2---1-3--3h--5--3--2--|
----------------1-4---3---1----|------------------------------|


  S  E  S S S S S S S S S E  E     S  E  S S S E  E   E  E  E   
--------------------------------|------------------------------|
--------------------------------|------------------------------|
--3h-5--2---1-3-----------------|--3h-5--2---1-3--3h--5--3--2--|
----------------1-4---3---1--3--|------------------------------|


  S  E  S S S S S S S S S S E.     S  E  S S S E  E   E  E  E   
--------------------------------|------------------------------|
--------------------------------|------------------------------|
--3h-5--2---------5-3-3-----3---|--3h-5--2---1-3--3h--5--3--2--|
------------6-8-5-------3-1-----|------------------------------|


  S  E  S S S S S S S S S Q       E  Q    E  E  E  S E  S    E  Q    E  E  E  S E  S  
-------------------------------|--------------------------|--------------------------|
-------------------------------|--------------------------|--------------------------|
--3h-5--2---1-3----------------|--------------------------|--------------------------|
----------------1-4---3---1----|--3-------3-----3--x-3----|--3-------3-----3--x-3----|


  E  Q    E  E  E  S E  S    E  Q    E  E  E  S S E     E  Q    E  E  E  S E  S  
--------------------------|--------------------------|--------------------------|
--------------------------|--------------------------|--------------------------|
--------------------------|---------------------5----|--------------------------|
--3-------3-----3--x-3----|--3-------3-----3------1--|--3-------3-----3--x-3----|


                                                                      |--3--|           
  E  Q    E  E  E  S E  S    E  Q    E  E  E  S E  S    E  Q    S S S S  S  S S S  E.   
--------------------------|--------------------------|---------------------------------|
--------------------------|--------------------------|---------------------------------|
--------------------------|--------------------------|----------------1s-3s-1-L-5s-3---|
--3-------3-----3--x-3----|--3-------3-----3--x-1--1-|--3-------3---x------------------|


  E  Q    E  E  E  S E  S    E  Q    E  E  E  S E  S    E  Q    E  E  E  S E  S  
--------------------------|--------------------------|--------------------------|
--------------------------|--------------------------|--------------------------|
--------------------------|--------------------------|--------------------------|
--3-------3-----3--x-3----|--3-------3-----3--x-3----|--3-------3-----3--x-3----|


  E  Q    E  E  E  S E  S    E  Q    E  E  E  S E  S    E  Q    E  E  E  S E  S  
--------------------------|--------------------------|--------------------------|
--------------------------|--------------------------|--------------------------|
--------------------------|--------------------------|---------------------5----|
--3-------3-----3--x-3----|--3-------3-----3--x-3----|--3-------3-----3--x----1-|


  E  Q    E  E  E  S E  S    E  S S S S S S S  S S S S S S S  
--------------------------|----------------------------------|
--------------------------|----------------------3-----------|
--------------------------|-----------------3h-5---3-5-3-1---|
--3-------3-----3--x-3----|--3----3-1---1------------------3-|


  S S S S S S S S S S S S E  S S    S S S S S S S S S S S S Q     
---------------------------------|-------------------------------|
---------------------------------|-------------------------------|
---------------------------------|--------------7---5---5---6----|
--5---5---3---3---1---1---0--x-1-|----1-1-1-0--------------------|


  S S S S S S S S S S S S E  S S    S S S S S S E  S S S S S S S S  
---------------------------------|---------------------------------|
---------------------------------|---------------------------------|
---------------------------------|-----------------3---3---2---2---|
--5---5---3---3---1---1---0--x-1-|----1-1-1-0---0------------------|


  S S S S S S S S S S S S E  S S    S S S S S S S S S S S S Q     
---------------------------------|-------------------------------|
---------------------------------|-------------------------------|
---------------------------------|------------------5---5---6----|
--5---5---3---3---1---1---0--x-1-|----1-1-1-0---0----------------|


  S S S S S S S S S S S S E  E     S E.  S S S S  E  S S S S S S    E  H        Q    S S  
--------------------------------|--------------------------------|-----------------------|
--------------------------------|--------------------------------|---------------------6-|
--------------------------------|----5---3-----5s-6--5-3-5-3-----|-----------------------|
--5---5---3---3---1---1---0-----|----------5-----------------5-3-|--5--------------------|


  S S S S S S S S S S S S S S S S    S S S S S S S S S  S S S S S S S  
----------------------------------|-----------------------------------|
--7---------------------9---7---6-|----7--------------------9---7---6-|
----5-7---8---9-------------------|------5---7---8--------------------|
------------------7---x-----------|------------------5h-7-------------|


  S S S S S S S S S S S S S S S S    S S S S S S S S S  E  S S S S S  
----------------------------------|----------------------------------|
--7---------------------9---7---6-|----7-------------------9---7---6-|
----5-7---8---9-------------------|------5---7---8-------------------|
------------------7---x-----------|------------------5h-7------------|


  S S S S S S S S  S S  S S S S S S    S S S S S S S S S  E  S S S S S  
------------------------------------|----------------------------------|
--7-0-2-0-3-0-4-----------9---7---6-|----7-------------------9---7---6-|
------------------------------------|------5---7---8-------------------|
----------------5h-7-5h-7-----------|------------------5h-7------------|


                                         |--3--| |--3--| |--3--|                  
  S S S S S S S S S S S S S S S S    S S S  S  S S  S  S S  S  S S  E  S S S S S  
----------------------------------|----2-----------------------------------------|
--7---------------------9---7---6-|------2h-3h-4-2h-3h-4-2h-3h-4-------9---7---6-|
----5-7---8---9-------------------|----------------------------------------------|
------------------7---x-----------|------------------------------5h-7------------|


  S S S S S S S S S S S S S S S S    S S S S  S S S S S S S S S S S S  
------------------------------7-8-|-----------------------------------|
--7---------------------9---------|----7--------7-----7---7-6---7---6-|
----5-7---8---9-------------9-----|--------7h-9---------9-------------|
------------------7---x-----------|---------------5-7-----------------|


  |-3-| |--3--| |--3--| |--3--|                                                   
  S S S S  S  S S  S  S S  S  S E  S S S S S S    S S S S S S S S S  E  S S S E   
--L-2------------------------------------------|--L------------------------------|
------0-2h-3h-4-2h-3h-4-2h-3h-4------9---7---6-|----7-------------------9---7----|
--------------------------------2--x-----------|------5---7---8------------------|
-----------------------------------------------|------------------5h-7-----------|


  E.  S Q.     S S S S E     E.  S H.              E.  S Q.     S S S S E   
--------------------------|---------------------|--------------------------|
--6---7--------7---x-7----|--7---9--------------|--6---7--------7---x-7----|
--------------------------|---------------------|--------------------------|
--------------------------|---------------------|--------------------------|


  E.  S H          S     E   S    S S S S S S S S S S S S S S S S  
--7----------------------------|----------------------------------|
------9----------------------6-|--7---------------------9---7---6-|
-------------------------------|----5-7---8---9-------------------|
-----------------(10)-/(10)----|------------------7---x-----------|


  S S S S S S S S S  S S S S S S S    S S S S S S S S S S S S S S S S  
-----------------------------------|----------------------------------|
----7--------------------9---7---6-|--7---------------------9---7---6-|
------5---7---8--------------------|----5-7---8---9-------------------|
------------------5h-7-------------|------------------7---x-----------|


  S S S S S S S S S  S S S S S S S    S S S S S S S S  S S  S S S S S S  
-----------------------------------|--2---------------------------------|
----7--------------------9---7---6-|----0-2-0-3-0-4-----------9---7---6-|
------5---7---8--------------------|------------------------------------|
------------------5h-7-------------|----------------5h-7-5h-7-----------|


  S S S S S S S S S  E  S S S E    
---------------------------------||
----7-------------------9---7----||
------5---7---8------------------||
------------------5h-7-----------||


Duration Legend
---------------
W - whole
H - half
Q - quarter
E - 8th
S - 16th
T - 32nd
X - 64th
. - note dotted
|-n-|  - n-tuplets

            
            
Suggest correction
Creating personal tab
Creating personal tab
You can edit any tab online and save it as your Personal.

You can edit, replace or remove any tab part or add personal notes – all changes will be seen only by you.

Personal tabs can be accessed anytime from any device, even offline.
Learn more »
Give kudos to tab author, rate the tab!
1 2 3 4 5
comments
print report bad tab
1 comment total.
0 reply
THWIT 534 Sep 12, 2017 08:11 AM

Nicely transcribed to standard tuning, thanks!

guest
You may want to rate the tab now too:
select rating
Wanna post a correction for this tab? Suggest correction