Oops, an error
Loading. Please wait.
We have an official Go Robot tab made by UG professional guitarists. Check out the tab »
×
48,109 views 243 this week
7 commentsread comments
1 2 3 4 5
x 21
add to favorites
×
Save as Personal and add changes to this tab that will be seen only by you. Learn more ›
×
You can save this tab as Personal to edit and correct it or add notes. All changes will be seen only by you. Learn more »
launch autoscroll
font size
0
reset
guitar tuner
backing track
0:00
0:00
edit
Autoscroll
slow
fast
+/-
esc
set tempo
stop
Author
Difficulty
[Intro]

G|--------------------10-8\-----8-10-------------10-15-13\\\|
D|----8--10-------8h10------------------8h10p8--------------|
A|---------------------------8-8-----11--------8------------|
E|8-8-------8-x-6-------------------------------------------|

G|----------------------10-8\-----10---10---------10-13/15b-15br\\\|
D|----8--10-----------8----------------------8h10------------------|
A|------------6h8p6-----------8-8----x----11-----------------------|
E|8-8-------8-------8----------------------------------------------|


[Verse]

G|--------------------10-8\-----8-10-------------10-15-13\\\|
D|----8--10-------8h10------------------8h10p8--------------|
A|---------------------------8-8-----11--------8------------|
E|8-8-------8-x-6-------------------------------------------|

G|----------------------10-8\-----10---10---------10-13/15b-15br\\\|
D|----8--10-----------8----------------------8h10------------------|
A|------------6h8p6-----------8-8----x----11-----------------------|
E|8-8-------8-------8----------------------------------------------|


[Pre-Chorus]

G|-----------------8-7\----------------------8-7\|
D|-----8-8-----6/8------------6-6--------6h8-----|
A|-----------------------------------------------|
E|6-6------6-x-----------4-4-------4-x-4---------|

G|--------------------8-7\---------------8-10-10-8\|
D|----8-8---------6/8----------6-6-----------------|
A|----------6h8------------------------------------|
E|6-6-----6-----6----------4-4-----4-x-4-----------|

[Verse]

G|--------------------10-8\-----8-10-------------10-15-13\\\|
D|----8--10-------8h10------------------8h10p8--------------|
A|---------------------------8-8-----11--------8------------|
E|8-8-------8-x-6-------------------------------------------|

G|----------------------10-8\-----10---10---------10-13/15b-15br\\\|
D|----8--10-----------8----------------------8h10------------------|
A|------------6h8p6-----------8-8----x----11-----------------------|
E|8-8-------8-------8----------------------------------------------|


[Pre-Chorus]

G|-----------------8-7\----------------------8-7\|
D|-----8-8-----6/8------------6-6--------6h8-----|
A|-----------------------------------------------|
E|6-6------6-x-----------4-4-------4-x-4---------|

G|--------------------8-7\---------------8-10-10-8\|
D|----8-8---------6/8----------6-6-----------------|
A|----------6h8------------------------------------|
E|6-6-----6-----6----------4-4-----4-x-4-----------|

[Chorus]

G|-----------10-8----10-10-8\-------------------13-13-10\|
D|----------------10----------------6h7h8-10/13----------|
A|8~8-10-11-------------------6-x-6~---------------------|
E|-------------------------------------------------------|

G|-----------10-8----10-10--8\-----------------10-8-10\|
D|----------------10-----------------6-5---------------|
A|8~8-10-11-------------------6-x-6------8-x-8---------|
E|-----------------------------------------------------|



G|----8h10-----------8-10-10-8h10-----------------10-10---10-10---10--10-10|
D|------------8h10p8--------------------5h6p5------------------------------|
A|8-8------10---------------------6-x-6-------6h8-------8-------8-------8--|
E|-------------------------------------------------------------------------|


[Verse]

G|--------------------10-8\-----8-10-------------10-15-13\\\|
D|----8--10-------8h10------------------8h10p8--------------|
A|---------------------------8-8-----11--------8------------|
E|8-8-------8-x-6-------------------------------------------|

G|----------------------10-8\-----10---10---------10-13/15b-15br\\\|
D|----8--10-----------8----------------------8h10------------------|
A|------------6h8p6-----------8-8----x----11-----------------------|
E|8-8-------8-------8----------------------------------------------|


[Pre-Chorus]

G|-----------------8-7\----------------------8-7\|
D|-----8-8-----6/8------------6-6--------6h8-----|
A|-----------------------------------------------|
E|6-6------6-x-----------4-4-------4-x-4---------|

G|--------------------8-7\---------------8-10-10-8\|
D|----8-8---------6/8----------6-6-----------------|
A|----------6h8------------------------------------|
E|6-6-----6-----6----------4-4-----4-x-4-----------|

[Chorus]

G|-----------10-8----10-10-8\-------------------13-13-10\|
D|----------------10----------------6h7h8-10/13----------|
A|8~8-10-11-------------------6-x-6~---------------------|
E|-------------------------------------------------------|

G|-----------10-8----10-10--8\-----------------10-8-10\|
D|----------------10-----------------6-5---------------|
A|8~8-10-11-------------------6-x-6------8-x-8---------|
E|-----------------------------------------------------|


G|----8h10-----------8-10-10-8h10-----------------10-10---10-10---10--10-10|
D|------------8h10p8--------------------5h6p5------------------------------|
A|8-8------10---------------------6-x-6-------6h8-------8-------8-------8--|
E|-------------------------------------------------------------------------|

[Funky Bridge]

G|--------------------------------------------------------------------------------------------------|
D|--10---10---10---10---10---10---10-10-----8---8-8-----6---6----3-3--3-3--3-3--3-3--3-3--3-3--3-3--|
A|--------------------------------------------------------------------------------------------------|
E|8----8----8----8----8----8----8-------8-6---6-----6\4---4---4-1----1----1----1---1-----1----1----1|

[Verse]

G|--------------------10-8\-----8-10-------------10-15-13\\\|
D|----8--10-------8h10------------------8h10p8--------------|
A|---------------------------8-8-----11--------8------------|
E|8-8-------8-x-6-------------------------------------------|

G|----------------------10-8\-----10---10---------10-13/15b-15br\\\|
D|----8--10-----------8----------------------8h10------------------|
A|------------6h8p6-----------8-8----x----11-----------------------|
E|8-8-------8-------8----------------------------------------------|


[Pre-Chorus]

G|-----------------8-7\----------------------8-7\|
D|-----8-8-----6/8------------6-6--------6h8-----|
A|-----------------------------------------------|
E|6-6------6-x-----------4-4-------4-x-4---------|

G|--------------------8-7\---------------8-10-10-8\|
D|----8-8---------6/8----------6-6-----------------|
A|----------6h8------------------------------------|
E|6-6-----6-----6----------4-4-----4-x-4-----------|

[Chorus]

G|-----------10-8----10-10-8\-------------------13-13-10\|
D|----------------10----------------6h7h8-10/13----------|
A|8~8-10-11-------------------6-x-6~---------------------|
E|-------------------------------------------------------|

G|-----------10-8----10-10--8\-----------------10-8-10\|
D|----------------10-----------------6-5---------------|
A|8~8-10-11-------------------6-x-6------8-x-8---------|
E|-----------------------------------------------------|

G|----8h10-----------8-10-10-8h10-----------------10-10---10-10---10--10-10|
D|------------8h10p8--------------------5h6p5------------------------------|
A|8-8------10---------------------6-x-6-------6h8-------8-------8-------8--|
E|-------------------------------------------------------------------------|

[Outro]

G|--------------------------------------------------|
D|-10--10-10---10---10-10---10---10-10---10---10-10-|
A|--------------------------------------------------|
E|8--8-------8----8-------8----8-------8----8------8|


G|--------------------------------------------------|
D|-10--10-10---10---10-10---10---10-10---10---10-10-|
A|--------------------------------------------------|
E|8--8-------8----8-------8----8-------8----8------8|


---------------------------------------------------------------

My variation of chorus (third bar) that i wrote during jam session:


G|--10--------8--10-8-------------------------10-10---10-10---10--10-10|
D|-----8h9h10---------10-8\6--------5h6p5------------------------------|
A|8---------------------------6-x-6-------6h8-------8-------8-------8--|
E|---------------------------------------------------------------------|

************************************

| x   Dead note
| h   Hammer-on
| p   Pull-off
| b   Bend
| br  Bend release
| /   Slide up
| \   Slide down
| ~   Vibrato

************************************

            
            
Suggest correction
Creating personal tab
Creating personal tab
You can edit any tab online and save it as your Personal.

You can edit, replace or remove any tab part or add personal notes – all changes will be seen only by you.

Personal tabs can be accessed anytime from any device, even offline.
Learn more »
comments
print report bad tab
7 comments total. Showing first comments.
0 reply
Radagast27 200 Jun 17, 2016 09:02 PM

Hey thank you for figuring out the tab to this song so soon after it came out! This is one of my favorite songs off the new RHCPs album.

+2 reply
NicktheP 23 Aug 08, 2016 06:38 PM

If you listen closely, there's actually 2 bass lines going in this song, as Chad said in an interview. But this tab is awesome dude. Great work!

+1 reply
Caleb_q_ 10 Apr 29, 2017 10:29 AM

Love it in my opinion one of the best slap bass parts ever

guest
You may want to rate the tab now too:
select rating
Wanna post a correction for this tab? Suggest correction