Oops, an error
Loading. Please wait.

Greatest Hits Tab

version 1
version 1

Album

Whole song

5,010 views 48 this week
no commentswrite comment
1 2 3 4 5
2 more votes to show rating
add to favorites
launch autoscroll
font size
0
reset
how to read this tab
guitar tuner
×
Best way to learn
"Greatest Hits"
Autoscroll
slow
fast
+/-
esc
set tempo
stop
Author
Difficulty
  follow
intermediate
Artist: Red Hot Chili Peppers
Album: Greatest Hits
Tuning:
1.  Under the Bridge - Standard
2.  Give it Away - Standard
3.  Californication - Standard
4.  Scar Tissue - Standard
5.  Soul to Squeeze - Standard
6.  Otherside - Standard
7.  Suck My Kiss - Standard
8.  By the Way - Standard
9.  Parallel Universe - Standard
10. Breaking the Girl - Half Step Down
11. My Friends - Drop D Tuning
12. Higher Ground (Stevie Wonder cover) - Standard
13. Universally Speaking - Standard
14. Road Trippin' - Standard 
15. Fortune Faded - Standard
16. Save the Population - Standard

1. Under the Bridge
Tempo: 68 
Played on- Fender Jaguar
Clean Tone Throughout

[Intro]
(Fingerpicked)
e|---------------------------------------------------------------------------|
B|-3~-------3----------------2--------------------------3------------3h5p3---|
G|-----2-------2~-----------------------3-------------------2---2----------2-|
D|---4-----------------------------4------4--4-2--------------4--------------|
A|-5~----5---------4-2----------4-----4-----------5-2---4h5-------5--------5-|
E|---------------------5-4---2-----------------------------------------------|

e|---------------------------------------------------------------------------|
B|--------------------------------3--------------3----------2----------------|
G|-2/4--4------------3~~--------------------2------2-------------------3-----|
D|-4/6--6--------4-----4--4-2----------4-------------------------4-4-----4---|
A|-5/7--7------4---4----------5-2-4h5----5----5-----4-2--------4-----x-------|
E|-----------2------------------------------------------5-4-2----------------| 

e|------------------------------------------------------------------|
B|---------3------------3h5p3---------------------------------------|
G|-----------------2-----------2--2/4--4-------------3----3---------|
D|-4-2---------4------4-----------4/6--6--------4------4----4-------|
A|-----5-2-4h5---5----5-----------5/7--7------4---4------------4/9--|
E|------------------------------------------2-----------------------|

[Verse 1]
(Tempo picks up Q=76 Pick up pick)
e|-----------7------x-----------------5------------------------5-------x-----|
B|--9---x----7------x--------9--x-4---5---9----7--------9------5-------x-----|
G|--9---x----8------x--------9--x-4---6---9--x-8----x---9------6-------x-----|
D|--9---x----9------x--9/11-----x-6---7---9--x-9----x---11-----7-------x-----|
A|--7---x----9------x--9/11-----x-6-------7--x-9----x---11-----7-------x-----|
E|--7--------7------x--------------------------7----x---9------5-------x-----|

[Interlude]
e|-0----------------------|
B|-9----------------------|
G|-8----------------------|
D|-9-------------(9)------|
A|-7-----(7)--------------|
E|-0----------------------|

[Verses 2 and 3]
e|------------------------------------------------5-5h7p5--------------------|
B|-9---9-x--7--x-7-7-7-7-------7------9----9---4--5-------5------------------|
G|-9---9-x--8--x-8-8-8-8h9p8---8------9----9---4--6-------6------------------|
D|-9---9-x--9--x-9-9-9-9-----9---9/11---11-----6--7-------7------------------|
A|-7---7-------------------------9/11---11-----6-----------------------------|
E|---------------------------------------------------------------------------|

e|--------------------------------------------5----5-------------------------|
B|-9---9----------------------------9----9----5-------5----------------------|
G|-9---9-x--8-8-8-8-8h9p8---8-------9----9----6----------6-------------------|
D|-9---9-x--9-9-9-9-9-----9----9/11---11------7------------------------------|
A|-7---7-x--9-9-9-9------------9/11---11------7------------------------------|
E|----------7---------------------------------5------------------------------|

[Pre Chorus]
(I don't ever wanna feel)
e|--9------------------------------------------------|
B|--10---9---9--/16-16-16-16---9---10-10-------------|
G|--11---9---9--/16-16-16-16---9---11-11--x-x-x-x----|
D|--11---9---9--/16-16-16-16---9---11-11--x-x-x-x----|
A|--9----7---7--/14-14-14-14---7---9--9---x-x-x-x----|
E|---------------------------------------------------|

[Bridge]
e|--0--0-0--0-0--0-0--0-0--0--0-0-0------|
B|--5--5-5--5-5--5-5--3-3--3--1-1-1------|
G|--6--6-6--5-5--5-5--4-4--4--2-2-2------|
D|---------------------------------------|
A|---------------------------------------|
E|---------------------------------------|

(One Time)
e|-12-12-12-12-12-12-12-12-12-12-12-12-12-12-12-12--10-10-10-10-10-10-10-10-|
B|-10-10-10-10-10-10-10-10-10-10-10-10-10-10-10-10--9--9--9--9--9--9--9--9--|
G|-10-10-10-10-10-10-10-10-10-10-10-10-10-10-10-10--9--9--9--9--9--9--9--9--|
D|-10-10-10-10-10-10-10-10-10-10-10-10-10-10-10-10--9--9--9--9--9--9--9--9--|
A|--------------------------------------------------9--9--9--9--9--9--9--9--|
E|--------------------------------------------------------------------------|

e|-------------15-15-15-15---|
B|-12-12-12-12-12-12-12-12---|
G|-12-12-12-12-12-12-12-12---|
D|-12-12-12-12-12-12-12-12---|
A|-10-10-10-10-10-10-10-10---|
E|---------------------------|

[UNDER THE BRIDGE]
(With Chorus Pedal)
e|--0--0-0-x0-0--0-0-x0-0-x0--0-0x0------|
B|--5--5-5-x5-5--5-5-x3-3-x3--1-1x1------|
G|--6--6-6-x5-5--5-5-x4-4-x4--2-2x2------|
D|---------------------------------------|
A|---------------------------------------|
E|---------------------------------------|

[Outro]
e|0/5--0-0--0-0--0-0--0-0--0--0-0-0-----0|
B|--5--5-5--5-5--5-5--3-3--3--1-1-1-0h1--|
G|--6--6-6--5-5--5-5--4-4--4--2-2-2------|
D|---------------------------------------|
A|---------------------------------------|
E|---------------------------------------|

e|--0--0-0--0-0-3p0-0--0-0--0--0-0-0-----------|
B|--5--5-5--5-5---5-5--3-3--3--1-1-1-1h3p1-----|
G|--6--6-6--5-5---5-5--4-4--4--2-2-2-------2---|
D|---------------------------------------------|
A|---------------------------------------------|
E|---------------------------------------------|

e|--0--0-0--0-0----------0-0--0--0-0-0------|
B|--5--5-5--5-5----8p5---3-3--3--1-1-1------|
G|--6--6-6--5-5--5-----5-4-4--4--2-2-2------|
D|------------------------------------------|
A|------------------------------------------| 
E|------------------------------------------|

e|--0--0-0--0-0-----------0-------0----------|
B|--5--5-5--5-5-----------3----3--1--------2-|
G|--6--6-6--5-5-5h7p5-----4-4-----2-2------2-|
D|--------------------7---------------3----2-|
A|-----------------------------------------0-|
E|-------------------------------------------|

(Slow down)

Song Order:
Intro                        x1
Verse 1                      x2
Interlude                    x1
Verse 2                      x2
Interlude                    x1
Pre Chorus                   x4
Verse 3                      x3
Pre Chorus                   x4
Bridge                       x3
One Time                     x1
UNDER THE BRIDGE DOWN TOWN!! x8
Outro                        x1

2. Give it Away
Tempo: Q=92
(Light Distortion until outro)

[Intro]
e|---------------------------11----------11--------11---------11-------------|
B|--------------13b14r13-----------------------------------------------------|
G|--------------11b12r11---------11b12r11-11b12r11---11b12r11---11b12r11-----|
D|-7--7-7-7------------------------------------------------------------------|
A|-0--0-0-0-0----------------------------------------------------------------|
E|---------------------------------------------------------------------------|

e|---------------------------------------------------------------------------|
B|--------------13b14r13-----------------------------------------------------|
G|--------------11b12r14-----------------------------------------------------|
D|-7--7-7-7-----------------5-5---5-5---5-5---5-5---5-5----------------------|
A|-0--0-0-0-0-------------------3-----4-----4-----4-----4--------------------|
E|---------------------------------------------------------------------------|

[Verses]
e|---------------------------------------------------------------------------|
B|------------------------------------------5--------------------------------|
G|------7--6--5b6----------------------7-8--------7-6-5b6---------------7-5b6|
D|-7---------------5--5--5h7-------7------------7-----------5--5h7---7-------|
A|-0---------------0--0--0----------------------0----------------------------|
E|---------------------------------------------------------------------------|

[Chorus 1]                                            
e|--------------------------------------------------8----------7----7\5------|
B|--------------------------------------------------8-7b8r7----7----7\5------|
G|----------------------------------------------------7b8r7------------------|
D|-7-7-7-7-7-7-7-7-7-7-7-7-7-7-7-7-7-7-7-7-7-7-7-7---------------------------|
A|-0-0-0-0-0-0-0-0-0-0-0-0-0-0-0-0-0-0-0-0-0-0-0-0-----------0---------------|
E|---------------------------------------------------------------------------|

e|--------------------------------------------------5----------5----7b8r7----|
B|--------------------------------------------------5-7b8r7----5----7b8r7----|
G|----------------------------------------------------7b8r7------------------|
D|-7-7-7-7-7-7-7-7-7-7-7-7-7-7-7-7-7-7-7-7-7-7-7-7---------------------------|
A|-0-0-0-0-0-0-0-0-0-0-0-0-0-0-0-0-0-0-0-0-0-0-0-0-----------0---------------|
E|---------------------------------------------------------------------------|

[Chorus 2]
e|--------------------------------------------------8----------7----7\5------|
B|--------------------------------------------------8-7b8r7----7----7\5------|
G|----------------------------------------------------7b8r7------------------|
D|-7-7-7-7-7-7-7-7-7-7-7-7-7-7-7-7-7-7-7-7-7-7-7-7---------------------------|
A|-0-0-0-0-0-0-0-0-0-0-0-0-0-0-0-0-0-0-0-0-0-0-0-0-----------0---------------|
E|---------------------------------------------------------------------------|

e|--------------------------------------------16-------------------------17----17----|
B|---------------------------------------/16-----16----------------------------------|
G|----------------------------------------------------18b19r18b19r18--19----19---19\-|
D|-7-7-7-7-7-7-7-7-7-7-7-7-7-7-7-7--7-----------------16b17r16b17r16--17----17---17\-|
A|-0-0-0-0-0-0-0-0-0-0-0-0-0-0-0-0--0--0---------------------------------------------|
E|-----------------------------------------------------------------------------------|
 
(After Chorus 2 REST for 4 Bars)

[Guitar Solo 1]
e|---------------------------------------------------------------------------|
B|-------------------------------------------------------------------12------|
G|------------------11-12---------------12----14-15--14--12----14-------15-14|
D|--14---12---14------------14--12--14---------------------------------------|
A|---------------------------------------------------------------------------|
E|---------------------------------------------------------------------------|

e|----------------------------12----12---------------------------------------|
B|-14------12--15-----14--15-------------------------------------------------|
G|------------------------------------------------------7b9~~~~~~~~~~~rb7----|
D|---------------------------------------------------------------------------|
A|---------------------------------------------------------------------------|
E|---------------------------------------------------------------------------|


[Chorus 3]
(Rest for 4 bars)

[Guitar Solo 2]
(tr=Trill)
e|----------------------------------------------------------------------------|
B|----------------------------------------------------------------------------|
G|---------------12-14b15-14b15r14--12b13r12-12b13r12---14tr16tr14-12tr14tr12-|
D|-------12--14---------------------------------------------------------------|
A|-10h12----------------------------------------------------------------------|
E|----------------------------------------------------------------------------|

e|-----------------------|
B|-----------------------|
G|-----------------------|
D|--14--12---12tr14tr12--|
A|-----------------------|
E|-----------------------|

[Chorus 4]
e|---------------------------11----------11--------11---------11-------------|
B|--------------13b14r13-----------------------------------------------------|
G|--------------11b12r11---------11b12r11-11b12r11---11b12r11---11b12r11-----|
D|-7--7-7-7------------------------------------------------------------------|
A|-0--0-0-0-0----------------------------------------------------------------|
E|---------------------------------------------------------------------------|

e|---------------/17-17-17-17/20-20-20-20----|
B|---------------/17-17-17-17/20-20-20-20----|
G|---------------/17-17-17-17/20-20-20-20----|
D|-7--7-7-7-5h7------------------------------|
A|-0--0-0-0-0------------------------------0-|
E|-------------------------------------------|

[Outro Part 1]
e|----x-x-10-9-8~~~~~~~~~---|
B|----x-x-x--x-x~~~~~~~~~---|
G|----x-x-7--6-5~~~~~~~~~---|
D|-7------------------------|
A|-0------------------------|
E|--------------------------|

[Outro Part 2]
(Heavy Distortion)
e|--------------------------------|
B|----------7\6\5-5-5-5-5-5-5-5---|
G|----------7\6\5-5-5-5-5-5-5-5---|
D|-7-7-7-7------------------------|
A|-0-0-0-0------------------------|
E|------------------------------3b|

[Outro Part 3]
(Hard to hear, but its there)
e|------------------------------------------------------5------17\-----------|
B|----------------------------1-------1-----------------5------17\-----------|
G|----------5-----5-----5---------2------2------2--2----5------17\-----------|
D|------5h7---5h7---5h7----------------------2-----2-------------------------|
A|-5h7---------------------------------------------0-------------------------|
E|---------------------------------------------------------------------------|



Song Order:
Intro          x1
Verse 1        x3
Chorus 1       x1
Verse 2        x2
Chorus 2       x1
4 bar rest     x1
Guitar Solo 1  x1
Verse 3        x3
Chorus 3(rest) x1
Guitar Solo 2  x1
Verse 4        x3
Chorus 4       x4
Outro part 1   x4
Outro part 2   x4
Outro part 3   x1


3. Californication
Tempo: Q=96
(Clean Tone Throughout)

[Intro]
e|---------------------------------------------------------------------------|
B|-------0--1---------------------------0---1--------------------------------|
G|----------------------0---2-----------------------------0---2--------------|
D|----2-------------------------------2--------------------------------------|
A|-0-----------------3------------0-------------------3----------------------|
E|---------------1--------------------------------1--------------------------|

[Verse]
e|---------------------------------------------------------------------------|
B|-------0--1---------------------------0---1--------------------------------|
G|----------------------0---2-----------------------------0---2--------------|
D|----2-------------------------------2--------------------------------------|
A|-0-----------------3------------0-------------------3----------------------|
E|---------------1--------------------------------1--------------------------|

e|------------------------------------------------------1--------------------|
B|--------5----------------------------------------2----2--------------------|
G|-----------------------4--------------2---------------3--------------------|
D|-----5-----5---------------------------------0--------0--------------------|
A|-3------------------5-----5--------3-----3---------------------------------|
E|----------------3--------------1-------------------------------------------|

[Pre Chorus]
e|---------------------------------0--0-0-0-0-0-0-0-0-0-0--|
B|-1--1-1--1--1-1--1-1--1--1--1-1--1--1-1-1-1-1-1-1-1-1-1--|
G|-2--2-2--2--2-2--2-2--2--2--2-2--2--2-2-2-2-2-2-2-2-2-2--|
D|-2--2-2--2--2-2--2-2--2--2--2-2--3--3-3-3-3-3-3-3-3-3-3--|
A|-0--0-0--0--0-0--0-0--0--0--0-0--3--3-3-3-3-3-3-3-3-3-3--|
E|---------------------------------1--1-1-1-1-1-1-1-1-1-1--|

[Chorus]
e|----3---------3-----0--0--------------3------3------0---0---------0--------|
B|-1--1----1----1-----6--6---1---1---1--1---1--1------6---6----1----6--------|
G|-0--0----0----0-----5--5---2---2---0--0---0--0------5---5----2----5--------|
D|-2-------0-----------------2---2---2------0------------------2----0--------|
A|-3-------2-----------------0---0---3------2------------------0-------------|
E|---------3--------------------------------3--------------------------------|

[Solo]
(Key Change)
e|-------9----------------------9--------------------------------------------|
B|--10---------------------10------------------------------------------------|
G|----------11b13r11~~~~~----------11b13r11~~~--11-11-11-11p9----------------|
D|-------------------------------------------------------------11-11---9--11-|
A|---------------------------------------------------------------------------|
E|---------------------------------------------------------------------------|

e|---------------------------------9--12--14~~~~~~~-----9--12---14b16r14-14~-|
B|-----------------------------10--------------------10----------------------|
G|-9--11b13r11--9------------------------------------------------------------|
D|-----------------11-11~~~--------------------------------------------------|
A|---------------------------------------------------------------------------|
E|---------------------------------------------------------------------------|

e|---17--16--14------14------------------------------------------------------|
B|---------------17------17-14--17---14---14-----14-----14-----17--14-14\----|
G|----------------------------------------16b18--16b18--16b18----------------|
D|---------------------------------------------------------------------------|
A|---------------------------------------------------------------------------|
E|---------------------------------------------------------------------------|

e|-14b16r14--12-----12~~~-----------------12--10--9--------------------------|
B|--------------14---------14----12--10---------------10~~~~~----------------|
G|---------------------------------------------------------------------------|
D|---------------------------------------------------------------------------|
A|---------------------------------------------------------------------------|
E|---------------------------------------------------------------------------|

Song Order:
Intro      x2
Verse      x2
Pre Chorus x6
Chorus     x1
Intro      x1
Verse      x2
Pre Chorus x6
Chorus     x2
Solo       x1
Intro      x1
Verse      x1
Pre Chorus x6
Chorus     x2


4. Scar Tissue
Tempo: Q= 90
(Clean Tone Throughout)

[Intro]
e|----------------------------------------------------------------|
B|-----10----10---10----10----------------------------------------|
G|----------------------------9---9/10--10-----10----10----10\9---|
D|----------------------------------------------------------------|
A|--8------8----8----8--------------------------------------------|
E|----------------------------8---8/10------10----10----10------8-|

e|----------------------------------------------------------------|
B|-----10----10---10----10----------------------------------------|
G|--------------------------------9/10------------12p10-12p10-----|
D|----------------------------------------------------------------|
A|--8------8----8----8--------------------------------------------|
E|--------------------------------8/10----------------------------|

[Verse 1]
e|----------------------------------------------------------------|
B|-----10----10---10----10----------------------------------------|
G|----------------------------9---9/10--10-----10----10----10\9---|
D|----------------------------------------------------------------|
A|--8------8----8----8--------------------------------------------|
E|----------------------------8---8/10------10----10----10------8-|

e|----------------------8-----------------------------------------|
B|-----10----10---10----------8---8/10---------10-----------------|
G|------------------------------------------------12--10--9-------|
D|----------------------------------------------------------------|
A|--8------8----8----8--------------------------------------------|
E|----------------------------8---8/10---10-10--------------------|

[Chorus]
e|-1--1-1-1-1-1-1-1-1-----1------------------------------------|
B|-1--1-1-1-1-1-1-1-1-----1---5-------6-6--6--6-6--6--6---5----|
G|-2--2-2-2-2-2-2-2-2-----2---5-------7-7--7--7-7--7--7---5----|
D|-3--3-3-3-3-3-3-3-3-----3---5-------7-7--7--7-7--7--7---5----|
A|-3--3-3-3-3-3-3-3-3-----3---3---5---5-5--5--5-5--5--5---3----|
E|-1--1-1-1-1-1-1-1-1-----1------------------------------------|

[Verse 2]
e|----------------------------------------------------------------|
B|-----10----10---10----10----------------------------------------|
G|----------------------------9---9/10--10-----10----10----10\9---|
D|----------------------------------------------------------------|
A|--8------8----8----8--------------------------------------------|
E|----------------------------8---8/10------10----10----10------8-|

e|----------------------10---8-----------------13--12-10----------|
B|-----10----10---10--------------8/10--------------------13------|
G|--------------------------------------10------------------------|
D|----------------------------------------------------------------|
A|--8------8----8----8--------------------------------------------|
E|--------------------------------8/10--10--10--------------------|

[Solo 1]
(with Slide)
e|---------------------------------------------------------------------------|
B|--13\10--10-------10\8-8------8/10-10-----------10/12---12/13---13---------|
G|---------------------------------------------------------------------------|
D|---------------------------------------------------------------------------|
A|---------------------------------------------------------------------------|
E|---------------------------------------------------------------------------|

[Verse 3]
e|-------------------------------------------------------------------|
B|-----10----10---10----10-------------------------------------------|
G|----------------------------9---9/10--10-----10--------------------|
D|-----------------------------------------------------12p10h12p10---|
A|--8------8----8----8-----------------------------------------------|
E|----------------------------8---8/10------10------10-------------8-|

e|----------------------8------------------------------------------|
B|-----10----10---10----------8---8/10---------10--12-13-12--10----|
G|-----------------------------------------------------------------|
D|-----------------------------------------------------------------|
A|--8------8----8----8---------------------------------------------|
E|----------------------------8---8/10---10-10---------------10-10-|

[Verse 4]
e|----------------------------------------------------------------|
B|-----10----10---10----10----------------------------------------|
G|----------------------------9---9/10--10-----10----10----10\9---|
D|----------------------------------------------------------------|
A|--8------8----8----8--------------------------------------------|
E|----------------------------8---8/10------10----10----10------8-|

e|----------------------10---8-----------------13--12-------------|
B|-----10----10---10--------------8/10-----------------10-13-12---|
G|--------------------------------------10------------------------|
D|----------------------------------------------------------------|
A|--8------8----8----8--------------------------------------------|
E|--------------------------------8/10--10--10--------------------|

[Solo 2]
(with Slide)
e|---------------------------------------------------------------------------|
B|---13/15---15\13---13\10---10\8------13\10--13/15---/17--13\10-10-10/13\8--|
G|---------------------------------------------------------------------------|
D|---------------------------------------------------------------------------|
A|---------------------------------------------------------------------------|
E|---------------------------------------------------------------------------|

e|---------------------------------------------------------------------------|
B|-8--------/13\--10-----------------------15/17----17/18--18~~~~~~~---------|
G|---------------------------------------------------------------------------|
D|---------------------------------------------------------------------------|
A|---------------------------------------------------------------------------|
E|---------------------------------------------------------------------------|

[Verse 5]
e|----------------------------------------------------------------|
B|-----10----10---10----10----------------------------------------|
G|----------------------------9---9/10--10-----10----10----10\9---|
D|----------------------------------------------------------------|
A|--8------8----8----8--------------------------------------------|
E|----------------------------8---8/10------10----10----10------8-|

e|----------------------8-----------------------------------------|
B|-----10----10---10----------8---8/10---------10-----------------|
G|------------------------------------------------12--10--9-------|
D|----------------------------------------------------------------|
A|--8------8----8----8--------------------------------------------|
E|----------------------------8---8/10---10-10--------------------|

[Outro Solo]
(with Slide)
e|---------------------------------------------------------------------------|
B|-20/22--22\20-20~~~~-----20/22\17~~~~~----17/18\15--13/15-15\13-13/15-15---|
G|---------------------------------------------------------------------------|
D|---------------------------------------------------------------------------|
A|---------------------------------------------------------------------------|
E|---------------------------------------------------------------------------|

e|---------------------------------------------------------------------------|
B|-15\13-13\10--10/13\8-----10/13\10-----------------------------------------|
G|----------------------------------------------/14-----14--14--14-----------|
D|-------------------------------------12/14\12---------------------12/14----|
A|---------------------------------------------------------------------------|
E|---------------------------------------------------------------------------|

e|----------------------------------------------------------------------------|
B|----------------------------------------------18\17--17-12/13\12-/15--15\10-|
G|---------------------------------------/14----------------------------------|
D|--14\12-12/14\10-10------10/12----------------------------------------------|
A|--------------------------------12-12/--------------------------------------|
E|----------------------------------------------------------------------------|

e|---------------------------------------------------------------------------|
B|-10/13\10\8-8/10~~~~~~~~~~~~~~~----10\-------------------------------------|
G|---------------------------------------------------------------------------|
D|---------------------------------------------------------------------------|
A|---------------------------------------------------------------------------|
E|---------------------------------------------------------------------------|

Song Order:
Intro      x1
Verse 1    x1
Chorus     x2
Verse 2    x1
Chorus     x3
Solo 1     x1
Verse 3    x1
Chorus     x2      (Note: All solos are played with slides)
Verse 4    x1
Chorus     x3
Solo 2     x1
Verse 5    x1
Chorus     x3
Outro Solo x1

5. Soul to Squeeze
Tempo: Q=84
(Clean Tone Throughout)

[Intro]
e|-------------------------------------------------------------------------------|
B|------------------------------------------------5------------------------------|
G|-----2----4b6r4----------2-------2------2---4/6---6\4-----2---4b6r4---------2--|
D|---2-----------------2h4-------2-----2------------------2---------------2h4----|
A|-0------0--------0-0---------0-----0--0---0-----------0-----0------0-0---------|
E|-------------------------------------------------------------------------------|

e|----------------------------------------------------------------------5-----------|
B|----------------------------------------------------------------------------------|
G|-----2------------------------2----4b6r4---------2-----2------2---4/6---6\4-------|
D|---2----2---2------0--------2----------------2h4-----2-----2----------------------|
A|-0----0---0---------------0-----0--------0-0-------0-----0--0---0-----------------|
E|--------------3b5----3b5----------------------------------------------------------|

e|-----------------------------------------------------------|
B|----------------------------2-2-2-2-2-2-2-2-2-2-2-2-2------|
G|-----2-----4b6r4---------2--2-2-2-2-2-2-2-2-2-2-2-2-2------|
D|---2-----------------2h4----2-2-2-2-2-2-2-2-2-2-2-2-2------|
A|-0------0--------0-0--------0-0-0-0-0-0-0-0-0-0-0-0-0------|
E|-----------------------------------------------------------|
 
[Pre Verse]
(I use my thumb on the Bb/Dm)
e|----1-----------------------5-----------------------------------------------|
B|----1----------5------------6---6-6---6-----10-10-10-10-10-10-10-10-10-10-10|
G|----2----------5------------7---7-7---7-----10-10-10-10-10-10-10-10-10-10-10|
D|---------------5------------7---7-7---7-----10-10-10-10-10-10-10-10-10-10-10|
A|-3----------3--3---5-7-8----x---5-5---5-----8--8--8--8--8--8--8--8--8--8--8-|
E|-1-----3/5---------------6--6-----------------------------------------------|
                              T
e|---------------------------|
B|-5-5-5-5-5-----------------|
G|-5-5-5-5-5--3-3-5-5-5-5-5--|
D|-5-5-5-5-5--3-3-5-5-5-5-5--|
A|-3-3-3-3-3--5-5-5-5-5-5-5--|
E|------------3-3-3-3-3-3-3--|

[Verse]
(Bass plays first 8 bars, then play)
e|----1-----------------------5-----------------------------------------------|
B|----1----------5------------6---6-6-x-6-----10-10-10-10-10-10-10-10-10-10-10|
G|----2----------5----12p10---7---7-7-x-7-----10-10-10-10-10-10-10-10-10-10-10|
D|---------------5-x--12p10---7---7-7-x-7-----10-10-10-10-10-10-10-10-10-10-10|
A|-3----------3--3-x----------x---5-5-x-5-----8--8--8--8--8--8--8--8--8--8--8-|
E|-1-----3/5------------------6-----------------------------------------------|
                              T
e|---------------------------|
B|-5-5-5-5-5-----------------|
G|-5-5-5-5-5--3-3-5-5-5-5-5--|
D|-5-5-5-5-5--3-3-5-5-5-5-5--|
A|-3-3-3-3-3--5-5-5-5-5-5-5--|
E|------------3-3-3-3-3-3-3--|

[Chorus]
(Volume swells)                                 (stop swelling)
e|-----------0--------0------0-----0-----0-------x--0-x-0--x--0-x-0---5-5/6--|
B|-10--------8--------6------6-----10----8-------x--6-x-6--x--6-x-6---5-5/6--|
G|-10--------9--------7------7-----10----9-------x--7-x-7--x--7-x-7---5-5/7--|
D|-10--------10-------7------8-----10----10------x--7-x-7--x--7-x-7---7-7/8--|
A|-----------------------------------------------x----x----x----x-----7-7/8--|
E|-----------------------------------------------x----x----x----x-----5-5/6--|

[Verse 2]
(has no guitar - 8 bars)

[Solo]
(With Slide)
e|------------------------------------------8~-------------------------------|
B|--10\8----8/10-----------------/10-10-10-----10-10\8-----------8~~~--------|
G|-------10------10-------------------------------------/10~~----------------|
D|------------------/12~~~---------------------------------------------------|
A|---------------------------------------------------------------------------|
E|---------------------------------------------------------------------------|

e|------------------------------------------10\8-----------------------------|
B|--10\8----8/10-----------------/10-10-10--------10-10\8--6--5----3~~-------|
G|-------10------10-----------------------------------------~----------------|
D|------------------/12~~~---------------------------------------------------|
A|---------------------------------------------------------------------------|
E|---------------------------------------------------------------------------|

[Bridge]
e|-1-1-1-1-------------------------------------------|
B|-3-3-3-3-x--1-1--1-1-1--3--3-3-3-3-3-3-3-3-3-3-----|
G|-2-2-2-2-x--0-0--0-0-0--0--0-0-0-0-0-0-0-0-0-0-----|
D|-0-0-0-0-x--2-2--2-2-2--0--0-0-0-0-0-0-0-0-0-0-----|
A|------------0-0--0-0-0--2--2-2-2-2-2-2-2-2-2-2-----|
E|------------------------3--3-3-3-3-3-3-3-3-3-3-----|

e|-1-1-1-1-------------------------------------------|
B|-3-3-3-3-x--1-1--1-1-1--3--3-3-3-3-3-3-3-3-3-3-----|
G|-2-2-2-2-x--0-0--0-0-0--0--0-0-0-0-0-0-0-0-0-0-----|
D|-0-0-0-0-x--2-2--2-2-2--0--0-0-0-0-0-0-0-0-0-0-----|
A|------------0-0--0-0-0--2--2-2-2-2-2-2-2-2-2-2-----|
E|------------------------3--3-3-3-3-3-3-3-3-3-3-----|

e|-1-1-1-1-------------------------------------------|
B|-3-3-3-3-x--1-1--1-1-1--3--3-3-3-3-3-3-3-3-3-3-----|
G|-2-2-2-2-x--0-0--0-0-0--0--0-0-0-0-0-0-0-0-0-0-----|
D|-0-0-0-0-x--2-2--2-2-2--0--0-0-0-0-0-0-0-0-0-0-----|
A|------------0-0--0-0-0--2--2-2-2-2-2-2-2-2-2-2-----|
E|------------------------3--3-3-3-3-3-3-3-3-3-3-----|

e|-1-1-1-1----------------------------1-----1--1----------1\----------------|
B|-3-3-3-3---------1-1-1-1-1-1-1--x---3-----3--3----------3\----------------|
G|-2-2-2-2--x-x-x--0-0-0-0-0-0-0--x---3-----3--3----------3\----------------|
D|----------x-x-x--2-2-2-2-2-2-2--x---3-----3--3----------3\----------------|
A|----------x-x-x--0-0-0-0-0-0-0------1-----1--1----------1\----------------|
E|--------------------------------------------------------------------------|

[Verse 3]
(no guitar for 8 bars)
"Its Bitter Baby and its Very sweet"
e|----1-----------------------5-----------------------------------------------|
B|----1----------5------------6---6-6-x-6-----10-10-10-10-10-10-10-10-10-10-10|
G|----2----------5----12p10---7---7-7-x-7-----10-10-10-10-10-10-10-10-10-10-10|
D|---------------5-x--12p10---7---7-7-x-7-----10-10-10-10-10-10-10-10-10-10-10|
A|-3----------3--3-x----------x---5-5-x-5-----8--8--8--8--8--8--8--8--8--8--8-|
E|-1-----3/5------------------6-----------------------------------------------|
                              T
e|---------------------------|
B|-5-5-5-5-5-----------------|
G|-5-5-5-5-5--3-3-5-5-5-5-5--|
D|-5-5-5-5-5--3-3-5-5-5-5-5--|
A|-3-3-3-3-3--5-5-5-5-5-5-5--|
E|------------3-3-3-3-3-3-3--|

[End Chord] 
(Fade with volume pedal)
e|-1~---|
B|-1~---|
G|-2~---|
D|-3~---|
A|-3~---|
E|-1~---|

Song Order:
Intro                x1
Pre verse            x2
Verse 1 (Bass start) x2 (on guitar part)
Chorus               x1
Verse 2 (No guitar)  x1
Chorus               x1
Solo (With Slide)    x1
Bridge               x1
Verse 3              x1
Its Bitter baby...   x2
Outro Chorus         x2
End Chord            x1
       
6. Otherside
Tempo: Q=123

[Intro]
e|-------------------------------------------|
B|-------------------------------------------|
G|---------------4---------------------------|
D|--------7--7-------7--5--------------------|
A|-7-7-7-------------------7----5--5--5------|
E|-------------------------------------------|

[Chorus 1]
e|-------------------------------------------|
B|-------------------------------------------|
G|---------------4---------------------------|
D|--------7--7-------7--5----------5--5------|
A|-7-7-7-------------------7-7--5--5--5------|
E|-------------------------------------------|

e|-------------------------------------------|
B|-------------------------------------------|
G|---------------4---------------------------|
D|--------7--7-------7--5----------5--5------|
A|-7-7-7-------------------7-7--5--5--5------|
E|-------------------------------------------|

e|---------------------------------------------|
B|---------------------------------------------|
G|---------------------------------------------|
D|----------7--7--7----14---14---14---9--9--9--|
A|-7--7--7-------------------------------------|
E|---------------------------------------------|

[Verse]
(pluck upper notes with picking finger)
e|----------8------------------------15--------8--------------------15-------|
B|------------------------------12-------------------------------12----------|
G|---------------------------------------------------------------------------|
D|---------------------------------------------------------------------------|
A|---------------------------------------------------------------------------|
E|--5-5-5-5-5-5-5-5/12-12-12-12-12-12-12\5-5-5-5-5-5-5-5/12-12-12------------|

e|---------8----------------------15-------3----5------|
B|--------------------------12-------------3----5------|
G|-----------------------------------------4----6------|
D|-----------------------------------------5----7------|
A|-----------------------------------------5----7------|
E|-5-5-5-5-5-5-5-5/12-12-12-12-12-12-12----3----5------|

[Pre Chorus]
e|--3-------5--------3-----------------5---------5-----|
B|--3-------5--------3-----------------5---------5-----|
G|--4-------6--------4-----------------6---------6-----|
D|--5-------7--------5-----------------7---------7-----|
A|--5-------7--------5-----------------7---------7-----|
E|--3-------5--------3-----------------5---------5-----|

[Chorus 2]
e|-------------------------------------------|
B|-------------------------------------------|
G|---------------4---------------------------|
D|--------7--7-------7--5--------------------|
A|-7-7-7-------------------7-7--5--5--5------|
E|-------------------------------------------|

e|-------------------------------------------|
B|-------------------------------------------|
G|---------------4---------------------------|
D|--------7--7-------7--5--------------------|
A|-7-7-7-------------------7-7--5--5--5------|
E|---------------------------------8--7------|

e|---------------------------------------------|
B|---------------------------------------------|
G|---------------------------------------------|
D|-------5--7--7--7----14---14---14/17-17-17-17|
A|-7--7----------------------------------------|
E|---------------------------------------------|

[Chorus 3]
e|-------------------------------------------|
B|--------10-10--12--10----------------------|
G|-9-9-9----------------12-9-9--7--7--7------|
D|--------7--7---9---7-----------------------|
A|-7-7-7----------------10-7-7--5--5--5------|
E|-------------------------------------------|

e|-------------------------------------------|
B|--------10-10--12--10----------------------|
G|-9-9-9----------------12-9-9--7--7--7------|
D|--------7--7---9---7-----------------------|
A|-7-7-7----------------10-7-7--5--5--5------|
E|-------------------------------------------|

e|---------------------------------------------|
B|----------10-10-10---17---17---17---12-12-12-|
G|-9--9--9-------------------------------------|
D|----------7--7--7----14---14---14---9--9--9--|
A|-7--7--7-------------------------------------|
E|---------------------------------------------|

[Bridge]                  +     +      +        +   +  +     +      +   +   +
e|-0-----0-----0--------0-----0------0--------12-----0-----0------0---0---0--|
B|-0-----0-----0--------12----12-----12-----------12-12----12-----12--12--12-|
G|---------------------------------------------------------------------------|
D|---------------------------------------------------------------------------|
A|---------------------------------------------------------------------------|
E|---------------------------------------------------------------------------|

[Solo]
e|-0---0---0---0---0---0---0--0--0--0--0--0--0--0---0--0--0--0---0--0--0--0--0--|
B|-10--10--10--10--10--10/-17-17-17-17-17-17-17-17--20-17-17-17--20-17-17-20-17-|
G|------------------------------------------------------------------------------|
D|------------------------------------------------------------------------------|
A|------------------------------------------------------------------------------|
E|------------------------------------------------------------------------------|

[Outro Chorus]
2 Guitars (Guitar 1- Rhythm, Guitar 2- Lead)
Guitar 1
e|-------------------------------------------|
B|--------10-10--12--10----------------------| 
G|-9-9-9----------------12-9-9--7--7--7------|  
D|--------7--7---9---7-----------------------| x4   
A|-7-7-7----------------10-7-7--5--5--5------|    
E|-------------------------------------------|     
                                                    
e|-------------------------------------------|       
B|--------10-10--12--10----------------------|        
G|-9-9-9----------------12-9-9--7--7--7------|         
D|--------7--7---9---7-----------------------| x4           
A|-7-7-7----------------10-7-7--5--5--5------|           
E|-------------------------------------------|         
                                                      
e|---------------------------------------------|     
B|----------10-10-10---17---17---17---12-12-12-|    
G|-9--9--9-------------------------------------|   
D|----------7--7--7----14---14---14---9--9--9--| x4   
A|-7--7--7-------------------------------------| 
E|---------------------------------------------|

[Guitar 2]
e|-0---0---0---0---0---0---0--0--0--0--0--0--0--0---0--0--0--0---0--0--0--0--0--|
B|-10--10--10--10--10--10/-17-17-17-17-17-17-17-17--20-17-17-17--20-17-17-20-17-|
G|------------------------------------------------------------------------------| x8
D|------------------------------------------------------------------------------|
A|------------------------------------------------------------------------------|
E|------------------------------------------------------------------------------|

(Both guitars end on)
e|-5--------|
B|-5--------|
G|-5--------|
D|-7--------|
A|-7--------|
E|-5--------|

Song Order:
Intro        x1
Chorus 1     x1
Verse        x2
Pre Chorus   x1
Chorus 2     x1
Verse        x2
Pre Chorus   x1
Chorus 3     x1
Bridge       x2
Guitar Solo  x1
Outro Chorus x1

7. Suck My Kiss
Tempo: Q=104 
(W/Fuzz pedal)
e|---------------------------------------------------------------------------------|
B|---------------------------------------------------------------------------------|
G|------0----------------0--------------0------------------------------------7/9-9-|
D|------0-------x-x------0------x-x-----0------x-x---------3-3-3-3-5/7-7-7-7-------|
A|------1-------x-x------1------x-x-----1------x-x-3/5-5-5-------------------------|
E|-1-3-----1--3-x-x-1-3-----1-3-x-x-1-3----1-3-x-x---------------------------------|

[Verse]
e|-----------------------------------------|
B|-----------------------------------------|
G|-----------------------------------------|
D|-----------------------------------------|
A|-----------------------------1h3p1-------|
E|-1-3-x-3-1-3-3---1-3-x-3-1-3---------1---|

[Verse Variation]
e|----3~~~~~~--------4-----5--|
B|----3~~~~~~--------4-----5--|
G|----------------------------|
D|-2-------------3------4-----|
A|-2-------------3------4-----|
E|----------------------------|

[Pre Chorus]
e|------------------------|
B|------------------------|
G|---------------0--------|
D|---------x-----0--------|
A|---------x-----1--------|
E|-1--3----x--------------|

[Chorus]
e|-----------3--3--3-3------------------------------|
B|-----------3--3--3-3------2-2---------------------|
G|--1--1-----4--2--4-2------2-2---------------------|
D|--2--2--------0----0------2-2---------------------|
A|--2--2--------------------0-0---------------------|
E|--0--0----------------0---------------------------|

e|-----------3--3--3-3------------------------------|
B|-----------3--3--3-3------2-2-----3ph^5--0--------|
G|--1--1-----4--2--4-2------2-2-----4ph^6--0--------|
D|--2--2--------0----0------2-2---------------------|
A|--2--2--------------------0-0---------------------|
E|--0--0----------------0---------------------------|

e|-----------3--3--3-3------------------------------|
B|-----------3--3--3-3------2-2---------------------|
G|--1--1-----4--2--4-2------2-2---------------------|
D|--2--2--------0----0------2-2------2--2--2--x-----|
A|--2--2--------------------0-0------2--2--2--x-----|
E|--0--0----------------0------------0--0--0--x-----|

e|-----------3--3--3-3------------------------------|
B|-----------3--3--3-3------2-2---------------------|
G|--1--1-----4--2--4-2------2-2---------------------|
D|--2--2--------0----0------2-2---------------------|
A|--2--2--------------------0-0---------------------|
E|--0--0----------------0---------------------------|

[Pre solo]
e|-----------3--3--3-3------------------------------|
B|-----------3--3--3-3------2-2---------------------|
G|--1--1-----4--2--4-2------2-2--------0------------|
D|--2--2--------0----0------2-2--------0------------|
A|--2--2--------------------0-0--------1------------|
E|--0--0----------------0---------------------------|

[Solo]
(2 Guitars,
Guitar 1 and 2)
e|--------------------------------------------------------------------------|
B|--------------------------------------------------------------------------|
G|--15h17p15p0-0-0-0-15h17p15p0-0-0-0-0-15h17p15p0-0------------------------|
D|--------------------------------------------------------------------------|
A|--------------------------------------------------------------------------|
E|--------------------------------------------------------------------------|

e|--------------------------------------------------------------------------|
B|--------------------------------------------------------------------------|
G|--15h18p15p0-0-0-0-15h18p15p0-0-0-0-0-15h18p15p0-0-0----------------------|
D|--------------------------------------------------------------------------|
A|--------------------------------------------------------------------------|
E|--------------------------------------------------------------------------|

e|----------------------------------------------------------------------------------|
B|----------------------------------------------------------------------------------|
G|-15p0-0-0-0-0-15p0-0-0-0-0-15p0-0-0--10h12-12p0-10h12-12p0-10h12-12p0-10h12-12-12-|
D|----------------------------------------------------------------------------------|
A|----------------------------------------------------------------------------------|
E|----------------------------------------------------------------------------------|

[Guitar 1]
e|-10-10-10-10-10-10-10-10-10-10-10-10-12p10-10-10---------------------------|
B|-11b11----11b---11b---11b---11b---11b------11b-----------------------------|
G|---------------------------------------------------------------------------|
D|---------------------------------------------------------------------------|
A|---------------------------------------------------------------------------|
E|---------------------------------------------------------------------------|

e|-10-10-10-10-10-10-10-10-10-10-10-10-12p10-10-10---------------------------|
B|-11b11----11b---11b---11b---11b---11b------11b-----------------------------|
G|---------------------------------------------------------------------------|
D|---------------------------------------------------------------------------|
A|---------------------------------------------------------------------------|
E|---------------------------------------------------------------------------|

(Keep the 11 slightly bent)
e|-10-10-10-10-10-10-10-10-10-10-10-10-10-10-10-10---------------------------|
B|-11b11----11b---11b---11-11-11-11-11-11-11-11-11---------------------------|
G|---------------------------------------------------------------------------|
D|---------------------------------------------------------------------------|
A|---------------------------------------------------------------------------|
E|---------------------------------------------------------------------------|

e|-13-13-13-13-15-15-15-15-15-15-15-15-17-17-17-17-18-18-18-18-18-18-18-18---|
B|-15-15-15-15-17-17-17-17-17-17-17-17-19-19-19-19-20-20-20-20-20-20-20-20---|
G|---------------------------------------------------------------------------|
D|---------------------------------------------------------------------------|
A|---------------------------------------------------------------------------|
E|---------------------------------------------------------------------------|

(While guitar 1 is doing that...)

Guitar 2     
e|---------------------------------------------------------------------------|
B|-------10b11rb10------------10b11rb10----------10b11rb10-------------------|
G|-10/12------------12\10/12------------12\10/12-----------12\10-------------|
D|---------------------------------------------------------------------------|
A|---------------------------------------------------------------------------|
E|---------------------------------------------------------------------------|

e|---------------------------------------------------------------------------|
B|-------10b11rb10------------10b11rb10----------10b11rb10-------------------|
G|-10/12------------12\10/12------------12\10/12-----------12\10-------------|
D|---------------------------------------------------------------------------|
A|---------------------------------------------------------------------------|
E|---------------------------------------------------------------------------|

e|---------------------------------------------------------------------------|
B|-------10b11rb10------------10b11rb10----------10b11rb10-------------------|
G|-10/12------------12\10/12------------12\10/12-----------12\10-------------|
D|---------------------------------------------------------------------------|
A|---------------------------------------------------------------------------|
E|---------------------------------------------------------------------------|

e|---------------------------------------------------------------------------|
B|-------10b11rb10------------10b11rb10----------10b11rb10-------------------|
G|-10/12------------12\10/12------------12\10/12-----------------------------|
D|---------------------------------------------------------------------------|
A|---------------------------------------------------------------------------|
E|---------------------------------------------------------------------------|

[END OF SOLO]

[Outro Chorus]
e|-----------3--3--3-3------------------------------|
B|-----------3--3--3-3------2-2---------------------|
G|--1--1-----4--2--4-2------2-2---------------------|
D|--2--2--------0----0------2-2---------------------|
A|--2--2--------------------0-0---------------------|
E|--0--0----------------0---------------------------|

e|-----------3--3--3-3------------------------------|
B|-----------3--3--3-3------2-2-----3ph^5--0--------|
G|--1--1-----4--2--4-2------2-2-----4ph^6--0--------|
D|--2--2--------0----0------2-2---------------------|
A|--2--2--------------------0-0---------------------|
E|--0--0----------------0---------------------------|

e|-----------3--3--3-3------------------------------|
B|-----------3--3--3-3------2-2---------------------|
G|--1--1-----4--2--4-2------2-2---------------------|
D|--2--2--------0----0------2-2------2--2--2--x-----|
A|--2--2--------------------0-0------2--2--2--x-----|
E|--0--0----------------0------------0--0--0--x-----|


e|-----------3--3--3-3------------------------------|
B|-----------3--3--3-3------2-2---------------------|
G|--1--1-----4--2--4-2------2-2---------------------|
D|--2--2--------0----0------2-2---------------------|
A|--2--2--------------------0-0---------------------|
E|--0--0----------------0---------------------------|
                 ... Mouth was made to SUCK MY KISS!

Song Order:
"Well I'm Sailing"  x2
Verse               x4
Verse Variation     x1
Verse               x3
Pre Chorus          x1
Chorus              x1
Verse               x4
Verse Variation     x1
Verse               x3
Pre Chorus          x1
Chorus              x1
Pre Solo            x1
Solo                x1
Verse               x4
Verse Variation     x1
Verse               x3
Pre Chorus          x1
Outro Chorus        x1


8. By the Way
Tempo: Q=120
(Standing In Line...)
e|---------------------------------------------------------------------------|
B|---------------------------------------------------------------------------|
G|---5-5-5-5-5-5-5-5-5-5-5-5-5-5-5-5-2-2-2-2-2-2-2-2-2-2-2-2-2-2-2-2---------|
D|---3-3-3-3-3-3-3-3-2-2-2-2-2-2-2-2-0-0-0-0-0-0-0-0-0-0-0-0-0-0-0-0---------|
A|---------------------------------------------------------------------------|
E|---------------------------------------------------------------------------|

e|---------------------------------------------------------------------------|
B|-----------------------------------------------------------5-5-3-3---------|
G|---5-5-5-5-5-5-5-5-5-5-5-5-5-5-5-5-2-2-2-2-2-2-2-2-2-2-2-2-----------------|
D|---3-3-3-3-3-3-3-3-2-2-2-2-2-2-2-2-0-0-0-0-0-0-0-0-0-0-0-0-----------------|
A|---------------------------------------------------------------------------|
E|---------------------------------------------------------------------------|

e|---------------------------------------------------------------------------|
B|-----------------------------------------------------2-2-2-2-2-0-0---------|
G|---5-5-5-5-5-5-5-5-5-5-5-5-5-5-5-5-2-2-2-2-2-2-2-2-2-2-2-2-2-2-0-0---------|
D|---3-3-3-3-3-3-3-3-2-2-2-2-2-2-2-2-0-0-0-0-0-0-0-0-0-0-0-0-0-0-------------|
A|---------------------------------------------------------------------------|
E|---------------------------------------------------------------------------|

e|-----------------------------------------------------------------------------------|
B|---6-6-6-6-6-6-6-6-5-5-5-5-5-5-5-5-10-10-10-10-10-10-10-10-10-10-10-10-10-10-10-10-|
G|---5-5-5-5-5-5-5-5-5-5-5-5-5-5-5-5-9--9--9--9--9--9--9--9--9--9--9--9--9--9--9--9--|
D|---3-3-3-3-3-3-3-3-2-2-2-2-2-2-2-2-7--7--7--7--7--7--7--7--7--7--7--7--7--7--7--7--|
A|-----------------------------------------------------------------------------------|
E|-----------------------------------------------------------------------------------|

[Interlude]
(Sixteenth notes)
e|-x-x-x-x-x-x-x-x-x-x-x-x-x-x-x-x-x-x-x-x-x-x-x-x-x-x-x-x-x-x-x-x-----------|
B|-x-x-x-x-x-x-x-x-x-x-x-x-x-x-x-x-x-x-x-x-x-x-x-x-x-x-x-x-x-x-x-x-----------|
G|-x-x-x-x-x-x-x-x-x-x-x-x-x-x-x-x-x-x-x-x-x-x-x-x-x-x-x-x-x-x-x-x-----------|
D|-x-x-x-x-x-x-x-x-x-x-x-x-x-x-x-x-x-x-x-x-x-x-x-x-x-x-x-x-x-x-x-x-----------|
A|---------------------------------------------------------------------------|
E|---------------------------------------------------------------------------|

[Verse]
(Sixteenth notes)
e|-x-x-x-x-x-x-x-x-x-x-x-x-x-x-x-x-x-x-x-x-x-x-x-x-x-x-x-x-x-x-x-x-----------|
B|-x-x-x-x-x-x-x-x-x-x-x-x-x-x-x-x-x-x-x-x-x-x-x-x-13--13--13--13------------|
G|-x-x-x-x-x-x-x-x-x-x-x-x-x-x-x-x-x-x-x-x-x-x-x-x-x-x-x-x-x-x-x-x-----------|
D|-x-x-x-x-x-x-x-x-x-x-x-x-x-x-x-x-x-x-x-x-x-x-x-x-x-x-x-x-x-x-x-x-----------|
A|---------------------------------------------------------------------------|
E|---------------------------------------------------------------------------|

e|-10-10-x-x-x-x-x-x-x-x-x-x-x-x-10-10-x-x-x-x-x-x-x-x-x-x-x-x-x-x-----------|
B|-10-10-x-x-x-x-x-x-x-x-x-x-x-x-10-10-x-x-x-x-x-x-x-x-x-x-x-x-x-x-----------|
G|-10-10-x-x-x-x-x-x-x-x-x-x-x-x-10-10-x-x-x-x-x-x-x-x-x-x-x-x-x-x-----------|
D|-12-12-x-x-x-x-x-x-x-x-x-x-x-x-12-12-x-x-x-x-x-x-x-x-x-x-x-x-x-x-----------|
A|---------------------------------------------------------------------------|
E|---------------------------------------------------------------------------|

e|-10-10-x-x-x-x-x-x-x-x-x-x-x-x-10-10-x-x-x-x-x-x-x-x-x-x-x-x-x-x-----------|
B|-10-10-x-x-x-x-x-x-x-x-x-x-x-x-10-10-x-x-x-x-x-x-x-13-13-13-13-13----------|
G|-10-10-x-x-x-x-x-x-x-x-x-x-x-x-10-10-x-x-x-x-x-x-x-x-x-x-x-x-x-x-----------|
D|-12-12-x-x-x-x-x-x-x-x-x-x-x-x-12-12-x-x-x-x-x-x-x-x-x-x-x-x-x-x-----------|
A|---------------------------------------------------------------------------|
E|---------------------------------------------------------------------------|

e|-10-10-x-x-x-x-x-x-x-x-x-x-x-x-10-10-10-10-10-10-10-10-10-10-10-10-10-10---|
B|-10-10-x-x-x-x-x-x-x-x-x-x-x-x-10-10-10-10-10-10-10-10-10-10-10-10-10-10---|
G|-10-10-x-x-x-x-x-x-x-x-x-x-x-x-10-10-10-10-10-10-10-10-10-10-10-10-10-10---|
D|-12-12-x-x-x-x-x-x-x-x-x-x-x-x-12-12-12-12-12-12-12-12-12-12-12-12-12-12---|
A|---------------------------------------------------------------------------|
E|---------------------------------------------------------------------------|

[Chorus]
e|-1--1-1-1-1-1-1-x-------------------------x--5-5-5-5-5-5-5-5-5-5-5-5-5-5-5-|
B|-1--1-1-1-1-1-1-x--5-5--5--5-5-5-5--5-5-5-x--6-6-6-6-6-6-6-6-6-6-6-6-6-6-6-|
G|-2--2-2-2-2-2-2-x--5-5--5--5-5-5-5--5-5-5-x--7-7-7-7-7-7-7-7-7-7-7-7-7-7-7-|
D|-3--3-3-3-3-3-3-x--5-5--5--5-5-5-5--5-5-5-x--7-7-7-7-7-7-7-7-7-7-7-7-7-7-7-|
A|-3--3-3-3-3-3-3-x--3-3--3--3-3-3-3--3-3-3-x--5-5-5-5-5-5-5-5-5-5-5-5-5-5-5-|
E|-1--1-1-1-1-1-1-x-------------------------x--------------------------------|

e|-1--1-1-1-1-1-1-x-------------------------x--5-5-5-5-5-5-5-5-5-5-----5/6-6-|
B|-1--1-1-1-1-1-1-x--5-5--5--5-5-5-5--5-5-5-x--5-5-5-5-5-5-5-5-5-5-----5/6-6-|
G|-2--2-2-2-2-2-2-x--5-5--5--5-5-5-5--5-5-5-x--5-5-5-5-5-5-5-5-5-5-----5/7-7-|
D|-3--3-3-3-3-3-3-x--5-5--5--5-5-5-5--5-5-5-x--7-7-7-7-7-7-7-7-7-7-----7/8-8-|
A|-3--3-3-3-3-3-3-x--3-3--3--3-3-3-3--3-3-3-x--7-7-7-7-7-7-7-7-7-7-----7/8-8-|
E|-1--1-1-1-1-1-1-x-------------------------x--5-5-5-5-5-5-5-5-5-5-----5/6-6-|

(Talkbox,
w/Talkbox)
e|---------------------------------------------------------------------------|
B|---------------------------------------------------------------------------|
G|---------------------------------------------------------------------------|
D|---------------------------------------------------------------------------|
A|-3h5-3h5-3h5-3h5-3h5-3h5-3h5-3h5-3h5-3h5-3h5-3h5-3h5-3h5-3h5---------------|
E|---------------------------------------------------------------------------|

[Chorus 2] 
e|---------------------------------------------------------------------------|
B|---------------------------------------------------------------------------|
G|---5-5-5-5-5-5-5-5-5-5-5-5-5-5-5-5-2-2-2-2-2-2-2-2-2-2-2-2-2-2-2-2---------|
D|---3-3-3-3-3-3-3-3-2-2-2-2-2-2-2-2-0-0-0-0-0-0-0-0-0-0-0-0-0-0-0-0---------|
A|---------------------------------------------------------------------------|
E|---------------------------------------------------------------------------|

e|-----------------------------------------------------------------------------------|
B|---6-6-6-6-6-6-6-6-5-5-5-5-5-5-5-5-10-10-10-10-10-10-10-10-10-10-10-10-10-10-10-10-|
G|---5-5-5-5-5-5-5-5-5-5-5-5-5-5-5-5-9--9--9--9--9--9--9--9--9--9--9--9--9--9--9--9--|
D|---3-3-3-3-3-3-3-3-2-2-2-2-2-2-2-2-7--7--7--7--7--7--7--7--7--7--7--7--7--7--7--7--|
A|-----------------------------------------------------------------------------------|
E|-----------------------------------------------------------------------------------|

[Bridge]
e|-10-10-------------------------10-10---------------------------------------|
B|-10-10-------------------------10-10---------------------------------------|
G|-10-10----(FUNKY-BASS)---------10-10----(FUNKY-BASS)-----------------------|
D|-12-12-------------------------12-12---------------------------------------|
A|---------------------------------------------------------------------------|
E|---------------------------------------------------------------------------|

e|-10-10-------------------------10-10---------------------------------------|
B|-10-10-------------------------10-10---------------13-13-13-13-13----------|
G|-10-10---(FUNKY-BASS)----------10-10---(FUNKY-BASS)------------------------|
D|-12-12-------------------------12-12---------------------------------------|
A|---------------------------------------------------------------------------|
E|---------------------------------------------------------------------------|

e|-10-10-x-x-x-x-x-x-x-x-x-x-x-x-10-10-x-x-x-x-x-x-x-x-x-x-x-x-x-x-----------|
B|-10-10-x-x-x-x-x-x-x-x-x-x-x-x-10-10-x-x-x-x-x-x-x-x-x-x-x-x-x-x-----------|
G|-10-10-x-x-x-x-x-x-x-x-x-x-x-x-10-10-x-x-x-x-x-x-x-x-x-x-x-x-x-x-----------|
D|-12-12-x-x-x-x-x-x-x-x-x-x-x-x-12-12-x-x-x-x-x-x-x-x-x-x-x-x-x-x-----------|
A|---------------------------------------------------------------------------|
E|---------------------------------------------------------------------------|

e|-10-10-x-x-x-x-x-x-x-x-x-x-x-x-10-10-x-x-x-x-x-x-x-x-x-x-x-x-x-x-----------|
B|-10-10-x-x-x-x-x-x-x-x-x-x-x-x-10-10-x-x-x-x-x-x-x-13-13-13-13-13----------|
G|-10-10-x-x-x-x-x-x-x-x-x-x-x-x-10-10-x-x-x-x-x-x-x-x-x-x-x-x-x-x-----------|
D|-12-12-x-x-x-x-x-x-x-x-x-x-x-x-12-12-x-x-x-x-x-x-x-x-x-x-x-x-x-x-----------|
A|---------------------------------------------------------------------------|
E|---------------------------------------------------------------------------|

|-10-10-x-x-x-x-x-x-x-x-x-x-x-x--10-10-x-x-x-x-x-x-x-x-x-x-x-x-x-x-----------|
B|-10-10-x-x-x-x-x-x-x-x-x-x-x-x-10-10-x-x-x-x-x-x-x-x-x-x-x-x-x-x-----------|
G|-10-10-x-x-x-x-x-x-x-x-x-x-x-x-10-10-x-x-x-x-x-x-x-x-x-x-x-x-x-x-----------|
D|-12-12-x-x-x-x-x-x-x-x-x-x-x-x-12-12-x-x-x-x-x-x-x-x-x-x-x-x-x-x-----------|
A|---------------------------------------------------------------------------|
E|---------------------------------------------------------------------------|

e|-10-10-x-x-x-x-x-x-x-x-x-x-x-x-10-10-10-10-10-10-10-10-10-10-10-10-10-10---|
B|-10-10-x-x-x-x-x-x-x-x-x-x-x-x-10-10-10-10-10-10-10-10-10-10-10-10-10-10---|
G|-10-10-x-x-x-x-x-x-x-x-x-x-x-x-10-10-10-10-10-10-10-10-10-10-10-10-10-10---|
D|-12-12-x-x-x-x-x-x-x-x-x-x-x-x-12-12-12-12-12-12-12-12-12-12-12-12-12-12---|
A|---------------------------------------------------------------------------|
E|---------------------------------------------------------------------------|

[Outro Chorus]
e|-1--1-1-1-1-1-1-x-------------------------x--5-5-5-5-5-5-5-5-5-5-5-5-5-5-5-|
B|-1--1-1-1-1-1-1-x--5-5--5--5-5-5-5--5-5-5-x--6-6-6-6-6-6-6-6-6-6-6-6-6-6-6-|
G|-2--2-2-2-2-2-2-x--5-5--5--5-5-5-5--5-5-5-x--7-7-7-7-7-7-7-7-7-7-7-7-7-7-7-|
D|-3--3-3-3-3-3-3-x--5-5--5--5-5-5-5--5-5-5-x--7-7-7-7-7-7-7-7-7-7-7-7-7-7-7-|
A|-3--3-3-3-3-3-3-x--3-3--3--3-3-3-3--3-3-3-x--5-5-5-5-5-5-5-5-5-5-5-5-5-5-5-|
E|-1--1-1-1-1-1-1-x-------------------------x--------------------------------|

e|-1--1-1-1-1-1-1-x-------------------------x--5-5-5-5-5-5-5-5-5-5--x--5/6-6-|
B|-1--1-1-1-1-1-1-x--5-5--5--5-5-5-5--5-5-5-x--6-6-6-6-6-6-6-6-5-5--x--5/6-6-|
G|-2--2-2-2-2-2-2-x--5-5--5--5-5-5-5--5-5-5-x--7-7-7-7-7-7-7-7-5-5--x--5/7-7-|
D|-3--3-3-3-3-3-3-x--5-5--5--5-5-5-5--5-5-5-x--7-7-7-7-7-7-7-7-7-7--x--7/8-8-|
A|-3--3-3-3-3-3-3-x--3-3--3--3-3-3-3--3-3-3-x--5-5-5-5-5-5-5-5-7-7--x--7/8-8-|
E|-1--1-1-1-1-1-1-x-------------------------x------------------5-5--x--5/6-6-|


[Final Chord]
e|-/5-------|
B|-/6-------|
G|-/7-------|
D|-/7-------|
A|-/5-------|
E|-/5-------|

Song Order:
Standing in Line x1
Interlude        x3
Verse            x1
Chorus           x1
Talkbox!!        x1
Interlude        x1
Verse            x1
Chorus 2         x2
Bridge           x1
Chorus           x2
Outro Chorus     x1
Final Chord      x1

9. Parallel Universe
Tempo: Q=124
[Intro]
e|---------------------------------------|
B|---------------------------------------|
G|-7-7-7-7-7-7-7-7-7-7-7-7-7-7-7-7-7-7-7-|
D|---------------------------------------|
A|---------------------------------------|
E|---------------------------------------|

[Riff]
(Palm Muted Throughout)
e|---------------------------------------------------------------------------|
B|---------------------------------------------------------------------------|
G|-8-8-8-8-8-8-8-8-8-8-8-8-8-8-8-8-8-8-8-8-8-8-8-8-8-8-8-8-8-8-8-8-----------|
D|---------------------------------------------------------------------------|
A|---------------------------------------------------------------------------|
E|---------------------------------------------------------------------------|

e|---------------------------------------------------------------------------|
B|---------------------------------------------------------------------------|
G|-7-7-7-7-7-7-7-7-7-7-7-7-7-7-7-7-7-7-7-7-7-7-7-7-7-7-7-7-7-7-7-7-----------|
D|---------------------------------------------------------------------------|
A|---------------------------------------------------------------------------|
E|---------------------------------------------------------------------------|

e|---------------------------------------------------------------------------|
B|---------------------------------------------------------------------------|
G|---------------------------------------------------------------------------|
D|-3-3-3-3-3-3-3-3-3-3-3-3-3-3-3-3-5-5-5-5-5-5-5-5-5-5-5-5-5-5-5-5-----------|
A|---------------------------------------------------------------------------|
E|---------------------------------------------------------------------------|

e|---------------------------------------------------------------------------|
B|---------------------------------------------------------------------------|
G|-5-5-5-5-5-5-5-5-5-5-5-5-5-5-5-5-4-4-4-4-4-4-4-4-4-4-4-4-4-4-4-4-----------|
D|---------------------------------------------------------------------------|
A|---------------------------------------------------------------------------|
E|---------------------------------------------------------------------------|
(End Riff)

[Last time Verse]
e|---------------------------------------------------------------------------|
B|---------------------------------------------------------------------------|
G|-8-8-8-8-8-8-8-8-8-8-8-8-8-8-8-8-8-8-8-8-8-8-8-8-8-8-8-8-8-8-8-8-----------|
D|---------------------------------------------------------------------------|
A|---------------------------------------------------------------------------|
E|---------------------------------------------------------------------------|

e|---------------------------------------------------------------------------|
B|---------------------------------------------------------------------------|
G|-7-7-7-7-7-7-7-7-7-7-7-7-7-7-7-7-7-7-7-7-7-7-7-7-7-7-7-7-7-7-7-7-----------|
D|---------------------------------------------------------------------------|
A|---------------------------------------------------------------------------|
E|---------------------------------------------------------------------------|

e|---------------------------------------------------------------------------|
B|-6-6-6-6-6-6-6-6-6-6-6-6-6-6-6-6-8-8-8-8-8-8-8-8-8-8-8-8-8-8-8-8-----------|
G|---------------------------------------------------------------------------|
D|---------------------------------------------------------------------------|
A|---------------------------------------------------------------------------|
E|---------------------------------------------------------------------------|

e|---------------------------------6-6-6-6-6-6-6-6-7-7-7-7-7-7-7-7-----------|
B|---------------------------------------------------------------------------|
G|-5-5-5-5-5-5-5-5-5-5-5-5-5-5-5-5-------------------------------------------|
D|---------------------------------------------------------------------------|
A|---------------------------------------------------------------------------|
E|---------------------------------------------------------------------------|

[Chorus]
e|--------------------------------------------------------------------------------|
B|--------------------------------------------------------------------------------|
G|-5-5--5----5-------------x-x--8-8-8--8------------------------------------------|
D|-5-5--5----5------5-6-6--x-x--8-8-8--8----5-5-5-5-5-5-5-5-5-5-5-5-5-5-5---------|
A|-3-3--3----3------5-6-6--x-x--6-6-6--6--0-5-5-5-5-5-5-5-5-5-5-5-5-5-5-5---------|
E|------------------3-4-4-----------------0-3-3-3-3-3-3-3-3-3-3-3-3-3-3-3---------|

e|---------------------------------------------------------------------------|
B|---------------------------------------------------------------------------|
G|-5-5-5-5-5-5---------------x-x--8--8\--------------------------------------|
D|-5-5-5-5-5-5-5-5-6--6-6-6--x-x--8--8\----5-5-5-5-5-5-5-5-5-5-5-5-5-5-5-5---|
A|-3-3-3-3-3-3-5-5-6--6-6-6--x-x--6--6\----5-5-5-5-5-5-5-5-5-5-5-5-5-5-5-5---|
E|-------------3-3-4--4-4-4----------------3-3-3-3-3-3-3-3-3-3-3-3-3-3-3-3---|

[Interlude]
e|--8\-------------------------------------------------------------------------------------|
B|--8\-------------------------------------------------------------------------------------|
G|--8\------8-8-8-8-8-8--------------------------------8-8-8-8-8-8-------------------------|
D|----------------------8-8-8-8-8-8--------------------------------8-8-8-8-8-8-------------|
A|-----------------------------------10-10-10-10-------------------------------10-10-10-10-|
E|-----------------------------------------------------------------------------------------|

e|---------------------------------------------------------------------------|
B|---------------------------------------------------------------------------|
G|---------------------------------8-8-8-8-8-8-------------------------------|
D|---------------------------------------------8-8-8-8-8-8-------------------|
A|---------------------------------------------------------10-10-10-10-------|
E|-8-8-8-8-8-8-8-8-8-8-8-8-8-8-8-8-------------------------------------------|

e|---------------------------------------------------------------------------|
B|---------------------------------------------------------------------------|
G|---------------------------------8-8-8-8-8-8-------------------------------|
D|---------------------------------------------8-8-8-8-8-8-------------------|
A|---------------------------------------------------------10-10-10-10-------|
E|-8-8-8-8-8-8-8-8-8-8-8-8-8-8-8-8-------------------------------------------|

[Outro]
(Turn on a phase shifter, Get feed back and use a Whammy bar)
e|---------------------------------------------------------------------------|
B|-----------------------------6-----------6\--2------5------4---------------|
G|--5-x-x-x-5----8-----------7----7--------7\--3------6------5----5~~--------|
D|---------------10-----------------------------------------------5~~--------|
A|----------------------------------------------------------------3~~--------|
E|---------------------------------------------------------------------------|

e|---------------------------------------------------------------------------|
B|-------------------------4~~~~~~~~~~~~~~~~~~~~~~~~~~~~~~~~~~~~~~~----------|
G|-3------2-----5----4-----5~~~~~~~~~~~~~~~~~~~~~~~~~~~~~~~~~~~~~~~----------|
D|-3------3-----6----5-----5~~~~~~~~~~~~~~~~~~~~~~~~~~~~~~~~~~~~~~~----------|
A|-1------5-----6----5-----3~-1~-1~-1~-1~-1~-1~-1~-1~-1~-1~-2~-3~~~----------|
E|---------------------------------------------------------------------------|
                            (On this chord, get a LOT of feed back and start Whammy) 
e|---------------------------------------------------------------------------|
B|-4------3------------------------------------------4~----------------------|
G|-5------3-------------------2--------5-------4-----5~----------------------|
D|-5------3-------------------3--------6-------5-----5~----------------------|
A|-3------1-------------------5--------6-------5-----3~----------------------|
E|---------------------------------------------------------------------------|
                                                       (Last chord, Feedback and Whammy)

Song Order:
Intro             x1
Riff              x2
Last time Verse   x1
Chorus            x1
Riff              x1
Last time Verse   x1
Chorus            x2
Interlude         x1
Riff              x1
Last time Verse   x1
Chorus            x2
Outro             x1

10. Breaking the Girl
6/8 Time
Tempo: DQ- 60 (Q- 80ish)
Tuning: Half Step Down Tuning

[Intro]
e|---------------------------------------------------------------------------|
B|-2-2-2--2--2---2-2--4--5-5-5-5-5-5-7--7-7--7-7--7--7--7---9--9-9-9-10-10p9-|
G|-2-2-2--2--2---2-2--4--5-5-5-5-5-5-7--7-7--7-7--7--7--7---9--9-9-9-9--9--9-|
D|-2-2-2--2--2---2-2--4--5-5-5-5-5-5-7--7-7--7-7--7--7--7---9--9-9-9-11-11p9-|
A|-0-0-0--0--4p0-0-0--0--0-0-0-0-7p0-0--0-0--0-10-10-10-10--0--0-0-0-0--0--0-|
E|---------------------------------------------------------------------------|

[Verse]
e|---------------------------------------------------------------------------|
B|-2-2-2--2--2---2-2--4--5-5-5-5-5-5-7--7-7--7-7--7--7--7---9--9-9-9-10-10p9-|
G|-2-2-2--2--2---2-2--4--5-5-5-5-5-5-7--7-7--7-7--7--7--7---9--9-9-9-9--9--9-|
D|-2-2-2--2--2---2-2--4--5-5-5-5-5-5-7--7-7--7-7--7--7--7---9--9-9-9-11-11p9-|
A|-0-0-0--0--4p0-0-0--0--0-0-0-0-7p0-0--0-0--0-10-10-10-10--0--0-0-0-0--0--0-|
E|---------------------------------------------------------------------------|

[Post Verse]
e|---------------|
B|-2-2-2--2-2----|
G|-2-2-2--2-2----|
D|-2-2-2--2-2----|
A|-0-0-0--0-0----|
E|---------------|

[Pre-Chorus]
e|-3-3-3-3-3-3-3-3-3-3-3-3-3-3-3-3------------------0------------------------|
B|-1-1-1-1-1-1-1-1-0-0-0-0-0-0-0-0-1-1-1-1-1-1-1-1--0--1-1-1-1-1-1-----------|
G|-0-0-0-0-0-0-0-0-0-0-0-0-0-0-0-0-2-2-2-2-2-2-2-2--0--2-2-2-2-2-2-----------|
D|-2-2-2-2-2-2-2-2-0-0-0-0-0-0-0-0-2-2-2-2-2-2-2-2--0--2-2-2-2-2-2-----------|
A|-3-3-3-3-3-3-3-3-2-2-2-2-2-2-2-2-0-0-0-0-0-0-0-0--0--0-0-0-0-0-0-----------|
E|-----------------3-3-3-3-3-3-3-3------------------x------------------------|

e|-3-3-3-3-3-3-3-3-3-3-3-3-3-3-3-3-0-0-0-0-0-0-0-0--0--0-0-0-0-0-0-----------|
B|-1-1-1-1-1-1-1-1-0-0-0-0-0-0-0-0-1-1-1-1-1-1-1-1--1--1-1-1-1-1-1-----------|
G|-0-0-0-0-0-0-0-0-0-0-0-0-0-0-0-0-2-2-2-2-2-2-2-2--2--2-2-2-2-2-2-----------|
D|-2-2-2-2-2-2-2-2-0-0-0-0-0-0-0-0-3-3-3-3-3-3-3-3--3--3-3-3-3-3-3-----------|
A|-3-3-3-3-3-3-3-3-2-2-2-2-2-2-2-2-3-3-3-3-3-3-3-3--3--3-3-3-3-3-3-----------|
E|-----------------3-3-3-3-3-3-3-3-1-1-1-1-1-1-1-1--1--1-1-1-1-1-1-----------|
                                   Played with thumb--------------|

[Chorus]
e|-----------------------------------3-3-3-3-3-3-3-3-3-3-3-3-3-3-------------|
B|-0-0-0-0---------------------------3-3-3-3-3-3-3-3-3-3-3-3-3-3-------------|
G|-5-5-5-5-7-7-7-7-9-9-9-9-11-11-11--1-1-1-1-1-1-1-1-1-1-1-1-1-1-------------|
D|-5-5-5-5-6-6-6-6-7-7-7-7-9--9--9---0-0-0-0-0-0-0-0-0-0-0-0-0-0-------------|
A|-0-0-0-0-x-x-x-x-x-x-x-x-x--x--x---2-2-2-2-2-2-2-2-2-2-2-2-2-2-------------|
E|-5-5-5-5-7-7-7-7-8-8-8-8-10-10-10--0-0-0-0-0-0-0-0-0-0-0-0-0-0-------------|

e|-----------------------------------0-0-0-0-0-0-0-0-0-0-0-0-0-0-------------|
B|-0-0-0-0---------------------------1-1-1-1-1-1-1-1-1-1-1-1-1-1-------------|
G|-5-5-5-5-7-7-7-7-9-9-9-9-11-11-11--2-2-2-2-2-2-2-2-2-2-2-2-2-2-------------|
D|-5-5-5-5-6-6-6-6-7-7-7-7-9--9--9---3-3-3-3-3-3-3-3-3-3-3-3-3-3-------------|
A|-0-0-0-0-x-x-x-x-x-x-x-x-x--x--x---3-3-3-3-3-3-3-3-3-3-3-3-3-3-------------|
E|-5-5-5-5-7-7-7-7-8-8-8-8-10-10-10--1-1-1-1-1-1-1-1-1-1-1-1-1-1-------------|
                                     Played with thumb----------|

e|-----------------------------------3-3-3-3-3-3-3-3-3-3-3-3-3-3-------------|
B|-0-0-0-0---------------------------3-3-3-3-3-3-3-3-3-3-3-3-3-3-------------|
G|-5-5-5-5-7-7-7-7-9-9-9-9-11-11-11--1-1-1-1-1-1-1-1-1-1-1-1-1-1-------------|
D|-5-5-5-5-6-6-6-6-7-7-7-7-9--9--9---0-0-0-0-0-0-0-0-0-0-0-0-0-0-------------|
A|-0-0-0-0-x-x-x-x-x-x-x-x-x--x--x---2-2-2-2-2-2-2-2-2-2-2-2-2-2-------------|
E|-5-5-5-5-7-7-7-7-8-8-8-8-10-10-10--0-0-0-0-0-0-0-0-0-0-0-0-0-0-------------|

e|-----------------------------------0-0-0-0-0-0-0-3-3-3-3-3-3-3-------------|
B|-0-0-0-0---------------------------1-1-1-1-1-1-1-3-3-3-3-3-3-3-------------|
G|-5-5-5-5-7-7-7-7-9-9-9-9-11-11-11--2-2-2-2-2-2-2-1-1-1-1-1-1-1-------------|
D|-5-5-5-5-6-6-6-6-7-7-7-7-9--9--9---3-3-3-3-3-3-3-0-0-0-0-0-0-0-------------|
A|-0-0-0-0-x-x-x-x-x-x-x-x-x--x--x---3-3-3-3-3-3-3-2-2-2-2-2-2-2-------------|
E|-5-5-5-5-7-7-7-7-8-8-8-8-10-10-10--1-1-1-1-1-1-1-0-0-0-0-0-0-0-------------|
                                     Thumb--------|

[Interlude]
e|--------------------------------|
B|---------1---------------1---1--|
G|---2-0-2-2---2-0-2-------2---2--|
D|---2-0-2-----2-0-2-------3---3--|
A|-0--------------------0--3---3--|
E|--------------------------------|

[Outro]
(Two Guitars)

Guitar 1
e|-12------12------12------12------------------------------------------------|
B|-13-13---13-13---13-13---13-13---12-13---12-13---12-13--12--13-------------|
G|----14------14------14------14---13-14---13-14---13-14--13--14-------------|
D|---------------------------------------------------------------------------|
A|---------------------------------------------------------------------------|
E|---------------------------------------------------------------------------|

Guitar 2
e|-----------------------------------0-0-0-0-0-0-0-3-3-3-3-3-3-3-------------|
B|-0-0-0-0---------------------------1-1-1-1-1-1-1-3-3-3-3-3-3-3-------------|
G|-5-5-5-5-7-7-7-7-9-9-9-9-11-11-11--2-2-2-2-2-2-2-1-1-1-1-1-1-1-------------|
D|-5-5-5-5-6-6-6-6-7-7-7-7-9--9--9---3-3-3-3-3-3-3-0-0-0-0-0-0-0-------------|
A|-0-0-0-0-x-x-x-x-x-x-x-x-x--x--x---3-3-3-3-3-3-3-2-2-2-2-2-2-2-------------|
E|-5-5-5-5-7-7-7-7-8-8-8-8-10-10-10--1-1-1-1-1-1-1-0-0-0-0-0-0-0-------------|
                                     Thumb--------|

Song Order:
Intro       x2
Verse       x4
Post Verse  x1
Pre Chorus  x1
Chorus      x1
Verse       x4
Post Verse  x1
Pre Chorus  x1
Chorus      x1
Interlude   x8
Chorus      x1
Outro       x6

11. My Friends
Tempo: Q=84
Tuning: Drop D

[Intro]
e|-----0-----------0-------------------------------------0----------0------0-|
B|-----3-----------3---------3---------------------------3---3------3---3----|
G|---2---------0h2-----------0----------0h2p0-0--0----2--2-----2-2--2--------|
D|-0------0-3--------3----0--0------0h2-------2-----0------0---3-------------|
A|----------------------2-------2-3------------------------------------------|
D|-0-------------------------------------------------------------------------|

e|---------------------------------|
B|-------3--------------3---3-3----|
G|-------0---------0h2------0-0----|
D|----0--0-------------------------|
A|-2--2--2---3/5-------------------|
D|-5---------3/5-------------------|

[Intro-Verse]
e|-------0--------0--------0--------------|
B|-------3--------3--------3---------3--3-|
G|----2-----2---2---2----0-----------0--0-|
D|--0---------3------------------0h2----2-|
A|--------------------2------2h3----------|
D|----------------------------------------|

e|-------0--------0--------0------3-3--3-3-3-3-3---|
B|-------3--------3--------3------3-3--3-3-3-3-3---|
G|----2-----2---2---2----0--------0-0--0-0-0-0-0---|
D|--0---------3-------------------0-0--0-0-0-0-0---|
A|--------------------2------2h3--2-2--2h3-2-2-2---|
D|-------------------------------------------------|

[Verse]
(2 Guitars)

Guitar 1
e|-------0--------0--------0--------------|
B|-------3--------3--------3---------3--3-|
G|----2-----2---2---2----0-----------0--0-|
D|--0---------3------------------0h2----2-|
A|--------------------2------2h3----------|
D|----------------------------------------|

e|-------0--------0--------0------3-3--3-3-3-3-3---|
B|-------3--------3--------3------3-3--3-3-3-3-3---|
G|----2-----2---2---2----0--------0-0--0-0-0-0-0---|
D|--0---------3-------------------0-0--0-0-0-0-0---|
A|--------------------2------2h3--2-2--2h3-2-2-2---|
D|-------------------------------------------------|

(Play twice)

Guitar 2
e|----5-------------5----------3----------3-----|
B|-7-7--7------8---8--8-----5-6--6-----5-5--5---|
G|--7--7-7~~-----7---7-7-----6--5-5~~---5--5-5--|
D|----------------------------------------------|
A|----------------------------------------------|
D|----------------------------------------------|

(Play twice)

[Chorus]
(Key Change,
Both Guitars)
e|---------------0-----0------------------------0----------------------------|
B|-1-------------0-------0----------------------0----------------------------|
G|-0-------------2---------2------0----------0--6----------------------------|
D|-2-------------2--------------2----------4----7--7-7-7-7/9-9-5-7-----------|
A|-3-------------0------------3------3-3/5------0--0-------------------------|
D|---------------------------------------------------------------------------|

[Solo]
e|---------------------------------------------------------------------------|
B|---------------------------------------------------------------------------|
G|-9/11-11-11-11-11\9--7--7\5--5/7---4-4-4-4/5-5-5-5/7-7-7-7/11-11-11-11-11--|
D|-x-x--x--x--x--x--x--x--x-x--x-x---x-x-x-x-x-x-x-x-x-x-x-x-x--x--x--x--x---|
A|-7/9--9--9--9--9-\7--5--5\3--3/5---2-2-2-2/3-3-3-3/5-5-5-5/9--9--9--9--9---|
D|---------------------------------------------------------------------------|

e|---------------------------------------------------------------------------|
B|---------------------------------------------------------------------------|
G|-11/14-14-14-14-14-14/16-12~~~-12\--5--------------------------------------|
D|-x--x--x--x--x--x--x--x--x-----x----x--------------------------------------|
A|-9-/12-12-12-12-12-12/14-10~~~-10\--3--------------------------------------|
D|---------------------------------------------------------------------------|

[Bridge]
e|---------------------------------------------------------------------------|
B|---------------------------------------------------------------------------|
G|-4--4--4-4-4-4-/9--7---7-7-7--7/9---6---4---4-5--5--5-5-5-5-5-5-5-5-5-5----|
D|-x--x--x-x-x-x--x--x---x-x-x--x-x---x---x---x-x--x--5-5-5-5-5-5-5-5-5-5----|
A|-2--2--2-2-2-2-/7--5---5-5-5--5/7---4---2---2-3--3--3-3-3-3-3-3-3-3-3-3----|
D|---------------------------------------------------------------------------|

e|-0-0-0-0-0-0-0-------------------------------------------------------------|
B|-0-0-0-0-0-0-0-x-x---------------------------------------------------------|
G|-4-4-4-4-4-4-4-x-x-------------------14-14-14-14-14-14-14-14-14-14-14-14---|
D|-4-4-4-4-4-4-4-x-x--3-----3-3-3-3----x--x--x--x--13-13-13-13-13-13-13-13---|
A|-2-2-2-2-2-2-2------3-----3-3-3-3----12-12-12-12-12-12-12-12-12-12-12-12---|
D|--------------------3-----3-3-3-3------------------------------------------|

[Outro]
(All Guitars) 
e|---------------------------------------------------------------------------|
B|-10-10-10-10-10-10-10-10-10-10-10----10-10-10----10-10-10-10-10-10-10-10-10|
G|-11-11-11-11-11-11-11-11-12-12-12----12-12-12----10-10-10-10-10-10-9--9--9-|
D|----------------------------------0-----------0----------------------------|
A|---------------------------------------------------------------------------|
D|---------------------------------------------------------------------------|

e|---------------------------------------------------------------------------|
B|-10-10-10-10-10-10-10-10-10-10-10-10-10-10-5-5-5-5-5-5-5-5-5-5-5-5-5-5-5-5-|
G|-11-11-11-11-11-11-12-12-12-12-12-12-12-12-5-5-5-5-5-5-5-5-5-5-5-5-5-5-5-5-|
D|---------------------------------------------------------------------------|
A|---------------------------------------------------------------------------|
D|---------------------------------------------------------------------------|

[Final Outro]
e|-0--0----------------------------------------------------------------------|
B|-3---------------3---------------------------------------------------------|
G|-2------2-----2--2-----2----------0------------0---------------------------|
D|-0--------0-3--------3-------0----0---------0-----0------------------------|
A|-0------------------------2----------2-2h3---------------------------------|
D|-0-------------------------------------------------------------------------|

e|-0-------------------------------------------------------------------------|
B|-3-------------------------------------------------------------------------|
G|-2----2--------------------------------------------------------------------|
D|-0--------0--------------------0--------------------------0~~~~~-----------|
A|-0------------0------------2---2--------------------------0~~~~~-----------|
D|-0-----------------3-------------------------3b4----------0~~~~~~~~~~~-----|

Song Order:
Intro       x1
Intro-Verse x2
Verse       x1
Chorus      x2
Verse       x1
Chorus      x2
Solo        x2
Bridge      x1
Verse       x1
Chorus      x2
Outro       x2
Final Outro x1

12. Higher Ground
Tempo: Q=138
Tuning: Standard 
[Bass Part]
G|---------------------------------------------------------------------------|
D|------2----------5-------7--------2-----------5---------7------------------|
A|---------------------------------------------------------------------------|
E|-0--0----0--3-3-----5-5------0--0----0--3--3-----5--5----------------------|
   S  S P  S  S S  P  S S  P   S  S P  S  S  S  P  S  S   p 

[Guitar Riff]
e|---------------------------------------------------------------------------|
B|--x-12-x-12-x-x-x-14-12--------12-x-12-x-x-x-------------------------------|
G|--x-12-x-12-x-x-x-14-12--14--x-12-x-12-x-x-x-------------------------------| 
D|--x-12-x-12-x-x-x--------14--x-12-x-12-x-x-x---------12-------12-----------|
A|----------------------------------------------12h14-----12h14--------------|
E|---------------------------------------------------------------------------|

e|---------------------------------------------------------------------------|
B|-----------15-15----15-15-15-15-14-14-14-14-14-----------------------------|
G|-x-12--12--14p12----14-14-14-14-14-14-14-14-14-----------------------------|
D|-x-12--12--------14--------------------------------------------------------|
A|-x-12--12------------------------------------------------------------------|
E|---------------------------------------------------------------------------|

[Verse Part 1]
e|--------------------------|
B|--------------------------|
G|--------------------------|
D|--------------------------|
A|-2-2-2-2-2-2---5------7---|
E|-0-0-0-0-0-0---3------5---|

[Verse Part 2]
e|---------------------------------------------------------------------------|
B|---------------------------------------------------------------------------|
G|---------------------------------------------------------------------------|
D|---------------------------------------------------------------------------|
A|-4-4-4-4-4-4--7---9--4-4-4-4-4-4--7---9--4-4-4-4-4-4-4--7---9--9-9-9-9-9-9-|
E|-2-2-2-2-2-2--5---7--2-2-2-2-2-2--5---7--2-2-2-2-2-2-2--5---7--7-7-7-7-7-7-|

e|-------------------------------------------|
B|-----15-15-15-15-15-15-14-14-14-14-14-14---|
G|-x---14-14-14-14-14-14-14-14-14-14-14-14---|
D|-x-----------------------------------------|
A|-x-----------------------------------------|
E|-------------------------------------------|

[Chorus]
e|----15-------------13--15------------------------|
B|----15---15--------14--16------------------------|
G|---------14--12----------------------------------|
D|---------------------------------9---5-5-5-------| X4
A|-12------------------------------7---------7-7-7-|
E|---------------------------0-0-0-----------------|

[Then]
e|----------------------15-15-15-15-15-15-15-15-15-15-15-15------------------|
B|----------------------15-15-15-15-15-15-15-15-15-15-15-15------------------|
G|-11-----11--11--11\--------------------------------------------------------|
D|-11-----11--11--11\--------------------------------------------------------|
A|-9------9---9---9\---------------------------------------------------------|
E|---------------------------------------------------------------------------|

[Verse Variation]
e|---------------/15-15-15\-----------15-15-15-------------------------------|
B|---------------/15-15-15\-----------15-15-15-------------------------------|
G|---------------/-----------------------------------------------------------|
D|---------------------------------------------12h14p12h14p12h14p12h14p12----|
A|-------5-5-5---------------------------------------------------------------|
E|-0--0--3-3-3---------------------------------------------------------------|

[Outro]
(Tempo Changes to Q=325)
e|---------------------------------------------------------------------------|
B|-----------------12-14-12-----------------12-14-12-------------------------|
G|-----------------12-14-12-----------------12-14-12-------------------------|
D|-14-14-14-12-14------------14-14-14-12-14-------------14-------------------|
A|-14-14-14-12-14------------14-14-14-12-14-------------14-------------------|
E|------------------------------------------------------12-------------------|

Song Order:
Funky Flea Intro!!  x1
Guitar Riff         x2
Verse Part 1        x8
Verse part 2        x1
Guitar riff         x2
Verse Part 1        x8
Verse part 2        x1
Guitar riff         x2
Chorus              x1
Verse part 1        x8
Verse part 2        x1
Guitar riff         x2
Verse Variation     x4
Verse Part 2        x1
Guitar riff         x2
Chorus              x1
Guitar riff         x6
Outro               x3


13. Universally Speaking

Tempo: Q=124
Tuning: Standard

[Intro]
e|-----------------------------0--0--0--0-0---0-0--0-0----------|
B|-7--7--7--7-7---7-7---7-7-7--8--8--8--8-8---8-8--8-8---x------|
G|-7--7--7--7-7---7-7---7-7-7--7--7--7--7-7---7-7--7-7---x------|
D|-7--7--7--7-7---7-7---7-7-7--0--0--0--0-0---0-0--0-0---x------|
A|-5--5--5--5-5---5-5---5-5-5--7--7--7--7-7---7-7--7-7---x------|
E|--------------------------------------------------------------|

[Verse]
e|-----------------------------0--0--0--0-0---0-0--0-0----------|
B|-7--7--7--7-7---7-7---7-7-7--8--8--8--8-8---8-8--8-8---x------|
G|-7--7--7--7-7---7-7---7-7-7--7--7--7--7-7---7-7--7-7---x------|
D|-7--7--7--7-7---7-7---7-7-7--0--0--0--0-0---0-0--0-0---x------|
A|-5--5--5--5-5---5-5---5-5-5--7--7--7--7-7---7-7--7-7---x------|
E|--------------------------------------------------------------|

[Pre-Chorus]
e|-----------------------------0--0--0--0-0---0-0--0-0----------|
B|-7--7--7--7-7---7-7---7-7-7--8--8--8--8-8---8-8--8-8---x------|
G|-7--7--7--7-7---7-7---7-7-7--7--7--7--7-7---7-7--7-7---x------|
D|-7--7--7--7-7---7-7---7-7-7--0--0--0--0-0---0-0--0-0---x------|
A|-5--5--5--5-5---5-5---5-5-5--7--7--7--7-7---7-7--7-7---x------|
E|--------------------------------------------------------------|

e|-----------------------------0--0--0--0-0---0-0--0-0----------|
B|-7--7--7--7-7---7-7---7-7-7--8--8--8--8-8---8-8--8-8---x------|
G|-7--7--7--7-7---7-7---7-7-7--7--7--7--7-7---7-7--7-7---x------|
D|-7--7--7--7-7---7-7---7-7-7--0--0--0--0-0---0-0--0-0---x------|
A|-5--5--5--5-5---5-5---5-5-5--7--7--7--7-7---7-7--7-7---x------|
E|--------------------------------------------------------------|

e|----------------------------|
B|-7--7--7--7-7---7-7---7-7-7-|
G|-7--7--7--7-7---7-7---7-7-7-|
D|-7--7--7--7-7---7-7---7-7-7-|
A|-5--5--5--5-5---5-5---5-5-5-|
E|----------------------------|


[Chorus]
e|-------------------------------------------------------------------------------|
B|-------------------------------------------------------------------------------|
G|--6-6-6-6-6-6-6-6-6-6-6-6-6-6-6-6-6-6-6-6-6-6-6-6-6-6-6-6-6-6-6-6-6-4-4-4-4--4-|
D|--7-7-7-7-7-7-7-7-7-7-7-7-7-7-7-5-5-5-5-5-5-5-5-5-5-5-5-5-5-5-5-5-5-5-5-5-5--5-|
A|--7-7-7-7-7-7-7-7-7-7-7-7-7-7-7-7-7-7-7-7-7-7-7-7-7-7-7-7-7-7-7-7-7-5-5-5-5--5-|
E|--5-5-5-5-5-5-5-5-5-5-5-5-5-5-5-5-5-5-5-5-5-5-5-5-5-5-5-5-5-5-5-5-5-3-3-3-3--3-|

e|-7--7-7-7---|
B|-7--7-7-7---|
G|-7--7-7-7---| (First time)
D|-9--9-9-9---| 
A|-9--9-9-9---|
E|-7--7-7-7---|

             John plays a nasty chord here
e|-7--7-7-7-------------------------------------0--|
B|-7--7-7-7-------------------------------------0--|
G|-7--7-7-7--3-3-3-3-3-3-3-3--------------------0--| (Second time)
D|-9--9-9-9--2-2-2-2-2-2-2-2--9--9--9-9-9-------2--|
A|-9--9-9-9--3-3-3-3-3-3-3-3--9--9--9-9-9-------2--|
E|-7--7-7-7--2-2-2-2-2-2-2-2--7--7--7-7-7-------0--|

[Pre Solo]
e|----------------------------|
B|-7--7--7--7-7---7-7---7-7-7-|
G|-7--7--7--7-7---7-7---7-7-7-|
D|-7--7--7--7-7---7-7---7-7-7-|
A|-5--5--5--5-5---5-5---5-5-5-|
E|----------------------------|

[Solo]
e|-------------------------------------------------------------------------------|
B|-------------------------------------------------------------------------------|
G|-------------------------------------------------------------------------------|
D|-16-14-12-14--12-11-12--11-12--14--12--11--12--14-14\7----7----7--7------------|
A|-------------------------------------------------------------------------------|
E|-------------------------------------------------------------------------------|

e|-------------------------------------------------------------------------------|
B|-------------------------------------------------------------------------------|
G|-------------------------------------------------------------------------------|
D|-16-14-12-14--12-11-12--11-12--14--12--11--12--14-14/19--19--19--19------------|
A|-------------------------------------------------------------------------------|
E|-------------------------------------------------------------------------------|

e|---------------------------------------------------------------------------------|
B|---------------------------------------------------------------------------------|
G|---------------------------------------------------------------------------------|
D|-16-14-12-14---12--11--12--11--12--11-12--14--12--11--12-11-12--14--12--11-12-11-|
A|---------------------------------------------------------------------------------|
E|---------------------------------------------------------------------------------|

e|-------------------------------------------------------------------------------|
B|-------------------------------------------------------------------------------|
G|-------------------------------------------------------------------------------|
D|-7--7----7-7--7-5-4-5b6--0--0--------7------7/12~~~~~~~~~~~~~------------------|
A|-------------------------------------------------------------------------------|
E|-------------------------------------------------------------------------------|

Song Order:
Intro       x2
Verse       x4
Pre-Chorus  x1
Chorus      x1
Intro       x2
Verse       x2
Pre-Chorus  x1
Chorus      x1
Verse       x3
Pre Solo    x1
Solo        x1 
 
14. Road Trippin'
Tempo: H=104 (Q=208)

[Intro]
e|---3----------3----------3------------------------------------|
B|--------0-----------0------------5---------4------------------|
G|--------------------------------------0---------0------4------|
D|-2----2---2-------2---2----2----------------------------------|
A|------------------------------3--3--3---3--2--2-----2------2--|
E|---0----------0-----------------------------------------------|

[Verse]
e|---3----------3----------3------------------------------------|
B|--------0-----------0------------5---------4------------------|
G|--------------------------------------0---------0------4------|
D|-2----2---2-------2---2----2----------------------------------|
A|------------------------------3--3--3---3--2--2-----2------2--|
E|---0----------0-----------------------------------------------|

e|---3----------3----------3------------------------------------|
B|--------0-----------0------------5---------4------------------|
G|--------------------------------------0---------0------4------|
D|-2----2---2-------2---2----2----------------------------------|
A|------------------------------3--3--3---3--2--2-----2------2--|
E|---0----------0-----------------------------------------------|

e|---3----------3-----5----3------------------------------------|
B|--------0------------------------5---------4------------------|
G|--------------------------------------0---------0------4------|
D|-2----2---2-------2---2----2----------------------------------|
A|------------------------------3--3--3---3--2--2-----2------2--|
E|---0----------0-----------------------------------------------|

e|---3----------3----------3------------------------------------|
B|--------0-----------0------------5---------4------------------|
G|--------------------------------------0---------0------4------|
D|-2----2---2-------2---2----2----------------------------------|
A|------------------------------3--3--3---3--2--2-----2------2--|
E|---0----------0-----------------------------------------------|

e|---3----------3----------3------------------------------------|
B|--------0-----------0------------5---------4------------------|
G|--------------------------------------0---------0------4------|
D|-2----2---2-------2---2----2----------------------------------|
A|------------------------------3--3--3---3--2--2-----2------2--|
E|---0----------0-----------------------------------------------|

[Pre Chorus]
(Blue, You sit so pretty west of the one)
e|---3----------3----------3------------------------------------|
B|--------0-----------0------------5---------4------------------|
G|--------------------------------------0---------0------4------|
D|-2----2---2-------2---2----2----------------------------------|
A|------------------------------3--3--3---3--2--2-----2------2--|
E|---0----------0-----------------------------------------------|

[Chorus]
(Mirror for the Sun)
e|-0-----------0---------------------------------------------------------------|
B|-------1-----------3-----------3----5----------5-------12----------12--------|
G|-------------------------0----------------0-----------------12----------12---|
D|----2----------2------0----------0-----5-----------5------------12--------12-|
A|-0--------0--------2--------2-------3--------3---------10------------10------|
E|-----------------------------------------------------------------------------|

[Interlude]
e|---------------------------------------------------------------------------|
B|-8----------8----------------5------------5--7----------7----8-----10----8-|
G|-------7------6----------6--------5----------------------------------------|
D|----9--------------5-----------5-----------------7--------------9----------|
A|-7-------7-------7-----------3--------3------5------5--------7-------7-----|
E|--------------5------5-----------------------------------------------------|

e|-----------------------------------------|
B|---------------------5---------------5---|
G|--6-------------6------------5-----------|
D|----------5--------------5---------------|
A|------7--------------3-----------3-------|
E|--5----------5---------------------------|

[1st Time]
e|--5-----------5---|
B|-------4----------|
G|-----5------------|
D|--4-------4-------|
A|------------------|
E|------------------|

[2nd Time]
e|-5------------5------8-----5--------8------11------8------5-------2--------|
B|--------4-----4------4-----4--------7------10------7------4-------1--------|
G|------------------------------------8------11------8------5-------2--------|
D|-4---4-----4-------4----4------4/7------10------7------4-------1-------1---|
A|---------------------------------------------------------------------------|
E|---------------------------------------------------------------------------|

[Outro]
e|----3----------3---------3-----------3-----------3----------3--3---------3-|
B|---------0----------0----------0------------0---------0--------------0-----|
G|---------------------------------------------------------------------------|
D|-2-----2---2-----2----2-----2-----2------2-----2----2---2------2--2----2--2|
A|---------------------------------------------------------------------------|
E|---------------------------------------------------------------------------|

e|-------3----------3----------3----------3---3---------3-----------3--------|
B|-0-----------0---------0----------0---------------0---------0-----------0--|
G|---------------------------------------------------------------------------|
D|----2-----2----2----2-----2----2-----2------2--2----2----2-----2-----2-----|
A|---------------------------------------------------------------------------|
E|---------------------------------------------------------------------------|
      
                             (Slow Down...)
e|----3---------3--3----------3-----------3-----------3~~~-------------------|
B|--------0-------------0-----------0-----------0----------------------------|
G|---------------------------------------------------------------------------|
D|-2----2---2------2--2----2-----2--2--2-----2-----2-------------------------|
A|---------------------------------------------------------------------------|
E|---------------------------------------------------------------------------|

Song Order:
Intro        x2
Verse        x1
Pre Chorus   x4
Chorus       x2
Verse        x1
Chorus       x2
Interlude    x1
1st Time     x1
Interlude    x1
2nd Time     x1
Verse        x1
Pre Chorus   x4
Chorus       x5
Outro        x1

15. Fortune Faded
Tempo: Q=116

[Intro]
e|-------------------------------------------------------------------------------|
B|-------------------------------------------------------------------------------|
G|-3-3-3-3-3-3-3-3-3-3-3-3-3-3-3-3-3-3-3-3-3-3-3-3-3-3-3-3-3-3-3-3---------------|
D|-4-4-4-4-4-4-4-4-4-4-4-4-4-4-4-4-4-4-4-4-4-4-4-4-4-4-4-4-4-4-4-4---------------|
A|-4-4-4-4-4-4-4-4-4-4-4-4-4-4-4-4-4-4-4-4-4-4-4-4-4-4-4-4-4-4-4-4---------------|
E|-2-2-2-2-2-2-2-2-2-2-2-2-2-2-2-2-2-2-2-2-2-2-2-2-2-2-2-2-2-2-2-2---------------|

[Intro Solo]
e|----------------------------------------------------------|
B|---------------------------10--7-10--7-10--7/-14--14--14--|
G|-----11-----------11--------------------------------------|
D|-9-------11--9-9-----11--9--------------------------------|
A|----------------------------------------------------------|
E|----------------------------------------------------------|

e|----------------------------------------------------|
B|---------------------------10----7-----10----7---7\-|
G|-----11-----------11--------------------------------|
D|-9-------11--9-9-----11--9--------------------------|
A|----------------------------------------------------|
E|----------------------------------------------------|

[Verse]
e|----------------------------------------9--9---9---9---9--9--9--9---9--9-------|
B|-7\-----------------------7--7---7------10-10--10--10--10-10-10-10--10-10------|
G|--------------------------7--7---7------9--9---9---9---9--9--9--9---9--9-------|
D|--------------------------7--7---7------11-11--11--11--11-11-11-11--11-11------|
A|-------------------------------------------------------------------------------|
E|-------------------------------------------------------------------------------|
 
e|----------------------------------------9--9---9---9---9--9--9--9---9--9-------|
B|--------------------------7--7---7------10-10--10--10--10-10-10-10--10-10------|
G|--------------------------7--7---7------9--9---9---9---9--9--9--9---9--9-------|
D|--------------------------7--7---7------11-11--11--11--11-11-11-11--11-11------|
A|-------------------------------------------------------------------------------|
E|-------------------------------------------------------------------------------|    

e|----------------------------------------------------|
B|---------------------------10----7-----10----7---7\-|
G|-----11-----------11--------------------------------|
D|-9-------11--9-9-----11--9--------------------------|
A|----------------------------------------------------|
E|----------------------------------------------------|

[Chorus]                                              (These are 10's)
e|---------------------------------------7-7-7-7-7-7-7-7-10101010101010----------|
B|-------------7---7---------------------7-7-7-7-7-7-7-7-7-7-7-7-7-7-7-----------|
G|-6--6--6--6--7---7---4-4--4--4--4-4----7-7-7-7-7-7-7-7-7-7-7-7-7-7-7-----------|
D|-7--7--7--7--7---7---5-5--5--5--5-5----9-9-9-9-9-9-9-9-7-7-7-7-7-7-7-----------|
A|-7--7--7--7--5---5---5-5--5--5--5-5----9-9-9-9-9-9-9-9-9-9-9-9-9-9-9-----------|
E|-5--5--5--5----------3-3--3--3--3-3----7-7-7-7-7-7-7-7-7-7-7-7-7-7-7-----------|

e|---------------------------------------7-7-7-7-7-7-7-7-7-7-7---7-7-7-----------|
B|-------------7---7---------------------7-7-7-7-7-7-7-7-101010--101010----------|
G|-6--6--6--6--7---7---4-4--4--4--4-4----7-7-7-7-7-7-7-7-7-7-7---7-7-7-----------|
D|-7--7--7--7--7---7---5-5--5--5--5-5----9-9-9-9-9-9-9-9-7-7-7---7-7-7-----------|
A|-7--7--7--7--5---5---5-5--5--5--5-5----9-9-9-9-9-9-9-9-9-9-9---9-9-9-----------|
E|-5--5--5--5----------3-3--3--3--3-3----7-7-7-7-7-7-7-7-7-7-7---7-7-7-----------|

[Bridge]
(Rest for 8 Bars Then...)
e|-------------------------------------------------------------------------------|
B|-------------------------------------------------------------------------------|
G|-3-3-3-3-3-3-3-3-3-3-3-3-3-3-3-3-3-3-3-3-3-3-3-3-3-3-3-3-3-3-3-3---------------|
D|-4-4-4-4-4-4-4-4-4-4-4-4-4-4-4-4-4-4-4-4-4-4-4-4-4-4-4-4-4-4-4-4---------------|
A|-4-4-4-4-4-4-4-4-4-4-4-4-4-4-4-4-4-4-4-4-4-4-4-4-4-4-4-4-4-4-4-4---------------|
E|-2-2-2-2-2-2-2-2-2-2-2-2-2-2-2-2-2-2-2-2-2-2-2-2-2-2-2-2-2-2-2-2---------------|

Song Order: 
Intro       x1
Intro Solo  x1
Verse       x2
Chorus      x1
Intro Solo  x1
Verse       x1
Chorus      x1
Bridge      x1
Chorus      x2

16. Save the Population

Tempo: Q=120

[Intro]
e|-------------------------------------------------------------------------------|
B|-----------------------15-----15-----------------------------------------------|
G|-------15------------------------------------15--------------17-----17---------|
D|--17------15----------------------------17------15-----------------------------|
A|--------------18-17~~-----17------17----------------18-17-------17------17-----|
E|-------------------------------------------------------------------------------|

e|-------------------------------------------------------------------------------|
B|-------------------------------------------------------------------------------|
G|-----15------------------------------------------------------------------------|
D|-17------15------------19--19--19brb---17------15brb---------------------------|
A|------------18-17~~~------------------------------------17---17\---------------|
E|-------------------------------------------------------------------------------|

(History So Strong)
e|-------------------------------------------------------------------------------|
B|-----------------------18-18--18--18-------------------------------------------|
G|-------15--------------x--x---x---x----------15--------------17-----17---------|
D|--17------15-----------x--x---x---x-----17------15-----------------------------|
A|--------------18-17~~--17-17--17--17----------------18-17-------17------17-----|
E|-------------------------------------------------------------------------------|

e|-------------------------------------------------------------------------------|
B|-------------------------------------------------------------------------------|
G|-----15------------------------------------------------------------------------|
D|-17------15------------19--19--19brb---17------15brb---------------------------|
A|------------18-17~~~------------------------------------17---17\---------------|
E|-------------------------------------------------------------------------------|

[Verse]
e|-------------------------------------------|
B|-------------------------------------------|
G|------------3------------------------------|
D|--5---------------------------/10-10-10-10-|
A|-------------------6-5~~~~-----------------|
E|-------------------------------------------|

e|-------------------------------------------|
B|-------------------------------------------|
G|------------3-----------------/7-7-7-7-----|
D|--5----------------------------------------|
A|-------------------6-5~~~~-----------------|
E|-------------------------------------------|

e|---------------------------------------------2-2-2-2-2-2-2--|
B|-----------------------------7---7h8---------1-1-1-1-1-1-1--|
G|------------3-------------------------7-7\5--2-2-2-2-2-2-2--|
D|--5------------------------------------------0-0-0-0-0-0-0--|
A|-------------------6-5~~~~----------------------------------|
E|------------------------------------------------------------|

(Cards Upon the Table)
e|--3-----3---3---3/6---6---6----6---6---6-|
B|--3-----3---3---3/6---6---6----6---6---6-|
G|--3-----3---3---3/7---7---7----7---7---7-|
D|--5-----5---5---5/8---8---8----8---8---8-|
A|--5-----5---5---5/8---8---8----8---8---8-|
E|--3-----3---3---3/6---6---6----6---6---6-|

(Eyes Wide) 
e|-----6-------------------------------------------------------------------------|
B|-8-8-8-----8-8---8-8--8-8--8-8--4--4--4-4--4-4--4-4--4-4--7-7-7--7-7--7-7--7---|
G|-8-8-8-----8-8---8-8--8-8--8-8--5--5--5-5--5-5--5-5--5-5--7-7-7--5-5--5-5--5---|
D|-8-8-8-----8-8---8-8--8-8--8-8--5--5--5-5--5-5--5-5--5-5--7-7-7--7-7--7-7--7---|
A|-6-6-6-----6-6---6-6--6-6--6-6--3--3--3-3--3-3--3-3--3-3--5-5-5--5-5--5-5--5---|
E|-------------------------------------------------------------------------------|

[Chorus Riff]                                 (Halfway Mark)
e|----14--------------------------------------|----------------------------------------------15--|
B|------15----13-15-13-15-----15---13-15-13-15|-------15----13-15-13-15--------15----13-15-------|
G|-12------12------------12-12---12-----------|-12-12----12--------------12-12----12------12-----|
D|--------------------------------------------|--------------------------------------------------|
A|--------------------------------------------|--------------------------------------------------|
E|--------------------------------------------|--------------------------------------------------|

[Outro Chorus]
e|------------------------------------------------------------------------------|
B|-8--8---8--8-8--8-8--10-10-10-10-10-10-10-10-11-11-11-11-11-11--11--11--11-11-|
G|-8--8---8--8-8--8-8--10-10-10-10-10-10-10-10-12-12-12-12-12-12--12--12--12-12-|
D|-8--8---8--8-8--8-8--10-10-10-10-10-10-10-10-12-12-12-12-12-12--12--12--12-12-|
A|-6--6---6--6-6--6-6--8--8--8--8--8--8--8--8--10-10-10-10-10-10--10--10--10-10-|
E|------------------------------------------------------------------------------|

[Last Chord]
e|-10~~~~~~~~~~~~~~~~~~~~~~~~~~--------------------------------------------------|
B|-11----------------------------------------------------------------------------|
G|-12----------------------------------------------------------------------------|
D|-12----------------------------------------------------------------------------|
A|-10----------------------------------------------------------------------------|
E|-------------------------------------------------------------------------------|
                 "We'll Save the Population"

Song Order:
Intro                x1
History So Strong    x1
Verse                x1
Cards upon the table x2
Eyes Wide            x1
Chorus Riff          x5
Intro                x1
History So Strong    x1
Verse                x1
Cards upon the table x2
Eyes Wide            x1
Chorus Riff          x5
Outro Chorus         x3 (Frusciante's Double vocals in)
Last Chord           x1



************************************

| h    Hammer-on
| p    Pull-off
| ~    Vibrato
| /    Slide up
| x    Dead note
| (n)  Ghost note
| r    Release
| b    Bend
| \    Slide down
| tr   Trill
| P    Pop

************************************
Suggest correction
Give kudos to tab author, rate the tab!
1 2 3 4 5
comments
print report bad tab
guest
You may want to rate the tab now too:
select rating
Wanna post a correction for this tab? Suggest correction