Oops, an error
Loading. Please wait.

Hanalei Tab

1,616 views 1 this week
no commentswrite comment
1 2 3 4 5
1 last vote to show rating
add to favorites
launch autoscroll
font size
0
reset
how to read this tab
guitar tuner
Autoscroll
slow
fast
+/-
esc
set tempo
stop
Help us to improve Ultimate-Guitar.com Take our survey!
×
Author
-------------------------------------------------------------------------------
                                         Hanalei - Red Hot Chili Peppers
-------------------------------------------------------------------------------

Album: I'm With You Sessions
Tabbed by: Dimitris_RHCP
E-mail: mitsakoc7@gmail.com
Youtube Chanel: Dimitris Tik

Tuning: Standard

Intro:

e|--6----4----4----1----|
B|--6----4----6----1----|
G|--7----5----6----2----|
D|--8----6----6----3----|
A|--8----6----4----3----|
E|--6----4---------1----|

Verse:

e|--6----7----1----6----4----2----1----|
B|--7----7----1----6----4----2----1----|
G|--8----8----2----7----5----3----2----| x2
D|--8----9----3----8----6----4----3----|
A|--6----9----3----8----6----4----3----|
E|-------7----4----6----4----2----4----|

Chorus:

e|--3----6----1----6----6----3----|
B|--5----6----1----8----8----5----|
G|--5----7----2----8----8----5----| x2
D|--5----8----3----8----8----5----|
A|--3----8----3----6----6----3----|
E|-------6----4-------------------|

Verse:

e|--6----7----1----6----4----2----1----|
B|--7----7----1----6----4----2----1----|
G|--8----8----2----7----5----3----2----| x2
D|--8----9----3----8----6----4----3----|
A|--6----9----3----8----6----4----3----|
E|-------7----4----6----4----2----4----|

Chorus:

e|--3----6----1----6----6----3----|
B|--5----6----1----8----8----5----|
G|--5----7----2----8----8----5----| x2
D|--5----8----3----8----8----5----|
A|--3----8----3----6----6----3----|
E|-------6----4-------------------|

Bridge (Only Dm) :

Guitar 1.

e|--5--|
B|--6--|
G|--7--|
D|--7--|
A|--5--|
E|-----|

Guitar 2.

e|-5-5--5-5--5-8-7-6-5--5--5-5--5-8-7-7-5----|
B|-6-6--6-6--6------------6--6-6--6----------|
G|-7-7--7-7--7------------7--7-7--7----------|
D|-7-7--7-7--7------------7--7-7--7----------|
A|-5-5--5-5--5------------5--5-5--5----------|
E|-------------------------------------------|

e|-5--5-5---5--5--5--5------5--5--5-111111111111----|
B|-6--6-6-8b-8b-8b-8b-8b----6--6--6-131313131313----|
G|-7--7-7-------------------7--7--7-121212121212----|
D|-7--7-7-------------------7--7--7-----------------| 
A|-5--5-5-------------------5--5--5-----------------| 
E|--------------------------------------------------|

Josh's part:

e|--5----6----5----6----1----1----|
B|--6----6----6----6----1----1----|
G|--7----7----7----7----2----2----|
D|--7----8----7----8----3----3----|
A|--5----8----5----8----3----3----|
E|-------6---------6----4----4----|

Chorus:

e|--3----6----1----6----6----3----|
B|--5----6----1----8----8----5----|
G|--5----7----2----8----8----5----| x2
D|--5----8----3----8----8----5----|
A|--3----8----3----6----6----3----|
E|-------6----4-------------------|

Outro:

e|-----------------------------------------------|
B|-----------------------------------------------|
G|-----------------------------------------------|
D|------10------10---10------10------10---10-----|
A|---10------10-----------10------10-------------|
E|--8-------8-------8----6-------6-------6-------|

e|-------------------------------------------|
B|-------------------------------------------|
G|------10------10---10-----8---8-7---7-5----| x2
D|---10------10-----------8-----8-8----------|
A|--8-------8-------8----6-----6-------------|
E|-------------------------------------------|

P.S. For "Guitar 2" and "Outro" I want to thank PatrixMatrix for his help :D

If you have any corrections, leave comment or send me e-mail. Thanks :)
Suggest correction
Give kudos to tab author, rate the tab!
1 2 3 4 5
comments
print report bad tab
guest
You may want to rate the tab now too:
select rating
Wanna post a correction for this tab? Suggest correction