Oops, an error
Loading. Please wait.

Hard To Concentrate tab

version 4
version 4
63,003 views 153 this week
6 commentsread comments
1 2 3 4 5
x 35
add to favorites
×
Save as Personal and add changes to this tab that will be seen only by you. Learn more ›
×
You can save this tab as Personal to edit and correct it or add notes. All changes will be seen only by you. Learn more »
launch autoscroll
font size
0
reset
how to read this tab
guitar tuner
backing track
0:00
0:00
edit
Autoscroll
slow
fast
+/-
esc
set tempo
stop
Author
[Intro/Verse]

e|-15----------------------14-----------------------|
B|-17----------------------15-----------------------|
G|-16----------------------16-----------------------|
D|--------------------------------------------------| x4
A|--------------------------------------------------|
E|--------------------------------------------------|


[Chorus]

e|-3---------3-----------5------------7-------------|
B|-5---------3-----------7------------8-------------|
G|-5---------4-----------7------------9-------------|
D|-5---------5-----------7------------9-------------| x3
A|-3---------5-----------5------------7-------------|
E|-----------3--------------------------------------|

e|-3---------3-----------5------------14-------------|
B|-5---------3-----------7------------15-------------|
G|-5---------4-----------7------------16-------------|
D|-5---------5-----------7---------------------------| x1
A|-3---------5-----------5---------------------------|
E|-----------3---------------------------------------|


[Verse]

e|-15----------------------14-----------------------|
B|-17----------------------15-----------------------|
G|-16----------------------16-----------------------|
D|--------------------------------------------------| x2
A|--------------------------------------------------|
E|--------------------------------------------------|


[Chorus]

e|-3---------3-----------5------------7-------------|
B|-5---------3-----------7------------8-------------|
G|-5---------4-----------7------------9-------------|
D|-5---------5-----------7------------9-------------| x3
A|-3---------5-----------5------------7-------------|
E|-----------3--------------------------------------|

e|-3---------3-----------5------------14-------------|
B|-5---------3-----------7------------15-------------|
G|-5---------4-----------7------------16-------------|
D|-5---------5-----------7---------------------------| x1
A|-3---------5-----------5---------------------------|
E|-----------3---------------------------------------|


[Riff 1]

e|----15--15-----17--17-15--------15--15-----17--17-15-----|
B|-17--------17------------17--17--------17------------17--|
G|---------------------------------------------------------|
D|---------------------------------------------------------|
A|---------------------------------------------------------|
E|---------------------------------------------------------|

e|----------14----------15--14--------------14----------15--14----|
B|----15----------15-----------15-----15----------15-----------15-|
G|-16----16----16----16------------16----16----16----16-----------|
D|----------------------------------------------------------------|
A|----------------------------------------------------------------|
E|----------------------------------------------------------------|

e|----15--15-----17--17-15--------15--15-----17--17-15-----|
B|-17--------17------------17--17--------17------------17--|
G|---------------------------------------------------------|
D|---------------------------------------------------------|
A|---------------------------------------------------------|
E|---------------------------------------------------------|

e|----------14----------15--14--------------14----------15--14----|
B|----15----------15-----------15-----15----------15-----------15-|
G|-16----16----16----16------------16----16----16----16-----------|
D|----------------------------------------------------------------|
A|----------------------------------------------------------------|
E|----------------------------------------------------------------|

                                                            when you repeat
                                                      this chorus after the 
                                                  first time you slide up to
                                               13 from 12 instead of slide
                                               down as shown barred off

[Chorus]

e|-------12--12-----------10--10-----------10--10---------12--12---|------|
B|-15\13--------13--13\12--------12--12\10-------10-10/12--------12|-12/13|
G|-----------------------------------------------------------------|------|x3
D|-----------------------------------------------------------------|------|
A|-----------------------------------------------------------------|------|
E|-----------------------------------------------------------------|------|

e|-------12--12-----------10--10-----10--------10---------|
B|-12\13--------13--13\12--------12--10--------10---------|
G|--------------------------------------------------------|
D|--------------------------------------------------------|
A|--------------------------------------------------------|
E|--------------------------------------------------------|


[Bridge]

e|-3----------------------3-----------5----------|
B|-5----------------------3-----------7----------|
G|-5----------------------4-----------7----------|
D|-5----------------------5-----------7----------| x2
A|-3----------------------5-----------5----------|
E|------------------------3----------------------|

e|--------8---------------7--------10-------|
B|------8---------------8--------10---------|
G|----9---------------7--------11-----------|
D|-10---------------9--------12-------------|
A|------------------------------------------|
E|------------------------------------------|

e|--------8----------7---10--10--14-14-10-10--14-14-10-10--14-14-10-10|
B|------8----------8-----10--10--10-10-10-10--10-10-10-10--10-10-10-10|
G|----9----------7-------11--11--11-11-11-11--11-11-11-11--11-11-11-11|
D|-10----------9---------12--12--12-12-12-12--12-12-12-12--12-12-12-12|
A|--------------------------------------------------------------------|
E|--------------------------------------------------------------------|


[Verse]

e|----15--15-----17--17-15--------15--15-----17--17-15-----|
B|-17--------17------------17--17--------17------------17--|
G|---------------------------------------------------------|
D|---------------------------------------------------------|
A|---------------------------------------------------------|
E|---------------------------------------------------------|

e|----------14----------15--14--------------14----------15--14----|
B|----15----------15-----------15-----15----------15-----------15-|
G|-16----16----16----16------------16----16----16----16-----------|
D|----------------------------------------------------------------|
A|----------------------------------------------------------------|
E|----------------------------------------------------------------|

e|----15--15-----17--17-15--------15--15-----17--17-15-----|
B|-17--------17------------17--17--------17------------17--|
G|---------------------------------------------------------|
D|---------------------------------------------------------|
A|---------------------------------------------------------|
E|---------------------------------------------------------|

e|----------14----------15--14--------------14----15----15--14----|
B|----15----------15-----------15-----15-----------------------15-|
G|-16----16----16----16------------16----16----16----16-----------|
D|----------------------------------------------------------------|
A|----------------------------------------------------------------|
E|----------------------------------------------------------------|


[Chorus]

e|-------12--12-----------10--10-----------10--10-------12--12-----|------|
B|-15\13--------13--13\12--------12--12\10-------10-10/12--------12|-12/13|
G|-----------------------------------------------------------------|------|x3
D|-----------------------------------------------------------------|------|
A|-----------------------------------------------------------------|------|
E|-----------------------------------------------------------------|------|

e|-------12-12-----------10-10----10-10-10-10---10-14-14-10-14-14-14-10-14-|
B|-12\13-------13-13\12-------12--10-10------10-10----------10----------10-|
G|-------------------------------------------------------------------------|
D|-------------------------------------------------------------------------|
A|-------------------------------------------------------------------------|
E|-------------------------------------------------------------------------|


[Solo going over Chorus 2]

e|-10--10h12~-----------------10-------------------------|
B|---12----------------10--b12---r10----10-10------------|                   
G|------------pb14r12-----------------9-------9~---------|
D|-------------------------------------------------------|
A|-------------------------------------------------------|
E|-------------------------------------------------------|

e|--------------------------------------------------------------------------|
B|---------------------------------------------------------------12p10---10~|
G|-11b12r11----7-7b9r7-7---7------------------7--9b10½-9~--7/9~--------12---|
D|-----------------------9----7p5---------7h9-------------------------------|
A|--------------------------------------------------------------------------|
E|--------------------------------------------------------------------------|

e|-10h12~~~~--------------|
B|------------------------|
G|------------------------|
D|------------------------|
A|------------------------|
E|------------------------|



************************************

| h   Hammer-on
| p   Pull-off
| r   Release
| b   Bend
| pb  Pre-bend
| /   Slide up
| \   Slide down
| ~   Vibrato

************************************
Suggest correction
Creating personal tab
Creating personal tab
You can edit any tab online and save it as your Personal.

You can edit, replace or remove any tab part or add personal notes – all changes will be seen only by you.

Personal tabs can be accessed anytime from any device, even offline.
Learn more »
comments
print report bad tab
6 comments total. Showing first comments.
+2 reply
guitarguru1224 10 Jul 22, 2009 06:30 PM

great tab bro

+1 reply
yofooooo 230 Sep 23, 2010 01:08 PM

best tab of the song

0 reply
HunterHach 10 Nov 03, 2013 07:20 AM

Awesome tab!

I think there is another note in this section, however.

|----15--15-----17--17--17-15--------15--15-----17--17--17-15-----|
|-17--------17----------------17--17--------17----------------17--|


Great job! (5 stars)

guest
You may want to rate the tab now too:
select rating
Wanna post a correction for this tab? Suggest correction