Oops, an error
Loading. Please wait.

Havana Affair tab

version 3
version 3

Interactive

4,635 views 1 this week
3 commentsread comments
1 2 3 4 5
x 7
add to favorites
×
Save as Personal and add changes to this tab that will be seen only by you. Learn more ›
×
You can save this tab as Personal to edit and correct it or add notes. All changes will be seen only by you. Learn more »
launch autoscroll
font size
0
reset
how to read this tab
guitar tuner
edit
Autoscroll
slow
fast
+/-
esc
set tempo
stop
Author
Difficulty
   Bm              D    A     Bm              D    A
e-------------------------------------------------------|
B--------3-----------5--------------3-----------5-------|
G------4---4---------5----6-------4---4---------5----6--|
D----4-------4-------5----5-----4-------4-------5----5--|
A--2---------------7------5---2-----------2---7------5--|
E-----------------------7--------------------------7----|

   Bm             G              A              Fm
e------------------------------------------------------------|
B--------3---------------------------------------------------|
G------4---4------------4--------------6--------------3------|
D----4-------4--------5---5----------7---7----------4---4----|
A--2----------------5-------5------7-------7------4-------4--|
E-----------------3--------------5--------------2------------|

Bm             G               A                          Fm
Pt boat on the way to havana   I use to make a living man picking the banana
Bm             G               A      Fm
Now im a guide for the C.I.A   Horray For the usa

   G              Fm     G               Fm
e--------------------------------------------------|
B----------------------2----------------------2----|
G--------4-------------3--------4-------------3----|
D------5---5-----------------5---5-----------4-----|
A----5-------5------4-------5-------5------4-------|
E--3--------------2-------3--------------2---------|

G                  Fm
Baby, Baby make me loco
G                  Fm
Baby, Baby make me mambo

e--------------------------------------------------|
B--------3--------3----2--------3--------3----2----|
G------4---4------4----3------4---4------4----3----|
D----4-------4----5--------4-------4----5----4-----|
A--2------------5----4----2------------5----4------|
E---------------3----2-----------------3----2------|

   Bm             G              A              Fm
e------------------------------------------------------------|
B--------3---------------------------------------------------|
G------4---4------------4--------------6--------------3------|
D----4-------4--------5---5----------7---7----------4---4----|
A--2----------------5-------5------7-------7------4-------4--|
E-----------------3--------------5--------------2------------|

Bm               G                     A          Fm
Sent to spy on a cuban talent show     First stop havana go go
Bm                   G                 A      Fm
Use to make a living picking a banana  Horray for havana

   G              Fm     G               Fm
e--------------------------------------------------|
B----------------------2----------------------2----|
G--------4-------------3--------4-------------3----|
D------5---5-----------------5---5-----------4-----|
A----5-------5------4-------5-------5------4-------|
E--3--------------2-------3--------------2---------|


e--------------------------------------------------|
B--------3--------3----2--------3--------3----2----|
G------4---4------4----3------4---4------4----3----|
D----4-------4----5--------4-------4----5----4-----|
A--2------------5----4----2------------5----4------|
E---------------3----2-----------------3----2------|

e----------------------------------------------------------------------------------|
B----------------------------------------------------------------------------------|
G-----------------7-9-----------------7-9-----------------7-9-----------------7-9--|
D--7-/-9--9-9-9-9-7-9--7-/-9--9-9-9-9-7-9--7-/-9--9-9-9-9-7-9--7-/-9--9-9-9-9-7-9--|
A--7-/-9--9-9-9-9-5-7--7-/-9--9-9-9-9-5-7--7-/-9--9-9-9-9-5-7--7-/-9--9-9-9-9-5-7--|
E--5-/-7--7-7-7-7------5-/-7--7-7-7-7------5-/-7--7-7-7-7------5-/-7--7-7-7-7------|

  Bm             G              A              Fm
e------------------------------------------------------------|
B--------3---------------------------------------------------|
G------4---4------------4--------------6--------------3------|
D----4-------4--------5---5----------7---7----------4---4----|
A--2----------------5-------5------7-------7------4-------4--|
E-----------------3--------------5--------------2------------|


   G              Fm     G               Fm
e--------------------------------------------------|
B----------------------2----------------------2----|
G--------4-------------3--------4-------------3----|
D------5---5-----------------5---5-----------4-----|
A----5-------5------4-------5-------5------4-------|
E--3--------------2-------3--------------2---------|


e--------------------------------------------------|
B--------3--------3----2--------3--------3----2----|
G------4---4------4----3------4---4------4----3----|
D----4-------4----5--------4-------4----5----4-----|
A--2------------5----4----2------------5----4------|
E---------------3----2-----------------3----2------|

e----------------------------------------------------------------------------------|
B----------------------------------------------------------------------------------|
G-----------------7-9-----------------7-9-----------------7-9-----------------7-9--|
D--7-/-9--9-9-9-9-7-9--7-/-9--9-9-9-9-7-9--7-/-9--9-9-9-9-7-9--7-/-9--9-9-9-9-7-9--|
A--7-/-9--9-9-9-9-5-7--7-/-9--9-9-9-9-5-7--7-/-9--9-9-9-9-5-7--7-/-9--9-9-9-9-5-7--|
E--5-/-7--7-7-7-7------5-/-7--7-7-7-7------5-/-7--7-7-7-7------5-/-7--7-7-7-7------|

   Bm             G              A              Fm
e------------------------------------------------------------|
B--------3---------------------------------------------------|
G------4---4------------4--------------6--------------3------|
D----4-------4--------5---5----------7---7----------4---4----|
A--2----------------5-------5------7-------7------4-------4--|
E-----------------3--------------5--------------2------------|

  G              Fm     G               Fm
e---------------------------------------------------|
B----------------------2----------------------2-----|
G--------4-------------3--------4-------------3-----|
D------5---5-----------------5---5-----------4------|
A----5-------5------4-------5-------5------4--------|
E--3--------------2------2/3--------------2---------|


e--------------------------------------------------|
B--------3--------3----2--------3--------3----2----|
G------4---4------4----3------4---4------4----3----|
D----4-------4------------4-------4----5----4------|
A--2------------5----4----2------------5----4------|
E---------------3----2-----------------3----2------|

I got this from "Live at Slane" DVD... so it's about 95% right. It's a real fun song, 
it and see :-).
Suggest correction
Creating personal tab
Creating personal tab
You can edit any tab online and save it as your Personal.

You can edit, replace or remove any tab part or add personal notes – all changes will be seen only by you.

Personal tabs can be accessed anytime from any device, even offline.
Learn more »
comments
print report bad tab
3 comments total.
0 reply
wilty00 540 Nov 04, 2006 09:56 AM

Chords are wrong.

0 reply
Yertle 241 Dec 25, 2006 08:01 AM

Instead of 7555, it should be 5777 for the intro. And arpeggiated. Likewise for the other chord.

0 reply
rhcpguns 10 May 21, 2016 04:03 PM

Your tab is perfect. would have to have more score.

guest
You may want to rate the tab now too:
select rating
Wanna post a correction for this tab? Suggest correction