Oops, an error
Loading. Please wait.

How It Ends tab

3,985 views 12 this week
5 commentsread comments
1 2 3 4 5
x 3
add to favorites
×
Save as Personal and add changes to this tab that will be seen only by you. Learn more ›
×
You can save this tab as Personal to edit and correct it or add notes. All changes will be seen only by you. Learn more »
launch autoscroll
font size
0
reset
how to read this tab
guitar tuner
edit
Autoscroll
slow
fast
+/-
esc
set tempo
stop
Author
RHCP-How It Ends

Wow,finally they released the 6 new b-sides.
They are all awesome and this is one of my favorites.

Gtr.1-clean
Gtr.2-light distortion


Intro:

Gtr.1

e|------7h10p7------7h10p7-----7h10p7------7h10p7-|
B|----8-----------8----------8-----------8--------|
G|--9-----------9----------9-----------9----------|x2
D|------------------------------------------------|
A|------------------------------------------------|
E|------------------------------------------------|

Verse:

Gtr.1

|------7h10p7------7h10p7-----7h10p7------7h10p7-|
|----8-----------8----------8-----------8--------|
|--9-----------9----------9-----------9----------|
|------------------------------------------------|
|------------------------------------------------|
|------------------------------------------------|

|------7h10p7------7h10p7-----7--11-11-11-11-11-11-11-----|
|----8-----------8----------8----12-12-12-12-12-12-12-----|
|--9-----------9----------9------11-11-11-11-11-11-11-----|
|---------------------------------------------------------|
|---------------------------------------------------------|
|---------------------------------------------------------|

Prechorus:

Gtr.1

|-5--5--5-5--4--3--3--3-3--3--3--3--3-3-3-|
|-7--7--7-7--6--5--5--5-5--5--4--4--4-4-4-|
|-7--7--7-7--6--5--5--5-5--5--5--5--5-5-5-|
|-7--7--7-7--6--5--5--5-5--5--5--5--5-5-5-|
|-5--5--5-5--4--3--3--3-3--3--3--3--3-3-3-|
|-----------------------------------------|

|-3--3-3-3--3-3-3--3-3-3--3-3-|
|-3--3-3-3--3-3-3--3-3-3--3-3-|
|-4--4-4-4--4-4-4--4-4-4--4-4-|
|-5--5-5-5--5-5-5--5-5-5--5-5-|
|-5--5-5-5--5-5-5--5-5-5--5-5-|
|-3--3-3-3--3-3-3--3-3-3--3-3-|

Back to verse:

Gtr.1

|------7h10p7------7h10p7-----7h10p7------7h10p7-|
|----8-----------8----------8-----------8--------|
|--9-----------9----------9-----------9----------|
|------------------------------------------------|
|------------------------------------------------|
|------------------------------------------------|

|------7h10p7------7h10p7-----7--11-11-11-11-11-11-11-----|
|----8-----------8----------8----12-12-12-12-12-12-12-----|
|--9-----------9----------9------11-11-11-11-11-11-11-----|
|---------------------------------------------------------|
|---------------------------------------------------------|
|---------------------------------------------------------|

Prechorus:

Gtr.1

|-5--5--5-5--4--3--3--3-3--3--3--3--3-3-3-|
|-7--7--7-7--6--5--5--5-5--5--4--4--4-4-4-|
|-7--7--7-7--6--5--5--5-5--5--5--5--5-5-5-|
|-7--7--7-7--6--5--5--5-5--5--5--5--5-5-5-|
|-5--5--5-5--4--3--3--3-3--3--3--3--3-3-3-|
|-----------------------------------------|

|-3--3-3-3--3-3-3--3-3-3--3-3-|
|-3--3-3-3--3-3-3--3-3-3--3-3-|
|-4--4-4-4--4-4-4--4-4-4--4-4-|
|-5--5-5-5--5-5-5--5-5-5--5-5-|
|-5--5-5-5--5-5-5--5-5-5--5-5-|
|-3--3-3-3--3-3-3--3-3-3--3-3-|

Chorus:

Gtr.2

|----------------7---------------|
|----------------8---------------|
|---7-5---5-7-7--9-7-5---5-7-7---|
|-2-7-5-7-5-7-7--9-7-5-7-5-7-7---|
|-2-5-3-7-3-5-5--7-5-3-7-3-5-5---|
|-0-----5--------------5---------|

Verse again:

Gtr.1

|------7h10p7------7h10p7-----7h10p7------7h10p7-|
|----8-----------8----------8-----------8--------|
|--9-----------9----------9-----------9----------|x2
|------------------------------------------------|
|------------------------------------------------|
|------------------------------------------------|

Gtr.2

|--------------------------------------x7x7~---|
|--------------------------------------x8x8~---|
|--------------------------------------x9x9~---|x2
|--------------------------------------x9x9~---|
|----------------------------------------------|
|----------------------------------------------|

Gtr.1

|------7h10p7------7h10p7-----7h10p7------7h10p7-|
|----8-----------8----------8-----------8--------|
|--9-----------9----------9-----------9----------|
|------------------------------------------------|
|------------------------------------------------|
|------------------------------------------------|

|------7h10p7------7h10p7-----7--11-11-11-11-11-11-11-----|
|----8-----------8----------8----12-12-12-12-12-12-12-----|
|--9-----------9----------9------11-11-11-11-11-11-11-----|
|---------------------------------------------------------|
|---------------------------------------------------------|
|---------------------------------------------------------|


Prechorus:

Gtr.1

|-5--5--5-5--4--3--3--3-3--3--3--3--3-3-3-|
|-7--7--7-7--6--5--5--5-5--5--4--4--4-4-4-|
|-7--7--7-7--6--5--5--5-5--5--5--5--5-5-5-|
|-7--7--7-7--6--5--5--5-5--5--5--5--5-5-5-|
|-5--5--5-5--4--3--3--3-3--3--3--3--3-3-3-|
|-----------------------------------------|

|-3--3-3-3--3-3-3--3-3-3--3-3-|
|-3--3-3-3--3-3-3--3-3-3--3-3-|
|-4--4-4-4--4-4-4--4-4-4--4-4-|
|-5--5-5-5--5-5-5--5-5-5--5-5-|
|-5--5-5-5--5-5-5--5-5-5--5-5-|
|-3--3-3-3--3-3-3--3-3-3--3-3-|

Verse again,but a little different:

Gtr.1

|-----7-10-7-----10-7-----10-7-----10-7-----|
|---8--------8--------8--------8--------8---|
|-9------------9--------9--------9--------9-|
|-------------------------------------------|
|-------------------------------------------|
|-------------------------------------------|

|--10-7-----10-7------11-11-11-11-11-11-11--|
|-------8--------8----12-12-12-12-12-12-12--|
|---------9--------9--11-11-11-11-11-11-11--|
|-------------------------------------------|
|-------------------------------------------|
|-------------------------------------------|

Prechorus:

Gtr.1

|-5--5--5-5--4--3--3--3-3--3--3--3--3-3-3-|
|-7--7--7-7--6--5--5--5-5--5--4--4--4-4-4-|
|-7--7--7-7--6--5--5--5-5--5--5--5--5-5-5-|
|-7--7--7-7--6--5--5--5-5--5--5--5--5-5-5-|
|-5--5--5-5--4--3--3--3-3--3--3--3--3-3-3-|
|-----------------------------------------|

|-3--3-3-3--3-3-3--3-3-3--3-3-|
|-3--3-3-3--3-3-3--3-3-3--3-3-|
|-4--4-4-4--4-4-4--4-4-4--4-4-|
|-5--5-5-5--5-5-5--5-5-5--5-5-|
|-5--5-5-5--5-5-5--5-5-5--5-5-|
|-3--3-3-3--3-3-3--3-3-3--3-3-|

Chorus:

Gtr.2

|----------------7---------------|
|----------------8---------------|
|---7-5---5-7-7--9-7-5---5-7-7---|
|-2-7-5-7-5-7-7--9-7-5-7-5-7-7---|
|-2-5-3-7-3-5-5--7-5-3-7-3-5-5---|
|-0-----5--------------5---------|

Then it continues:

|--------------------------|
|--------------------------|
|----7--4--------7--4------|
|-5--7--4--2--5--7--4-4-5--|
|-5--5--2--2--5--5--2-4-5--|
|-3--------0--3-------2-3--|

Solo:

Gtr.1

|---------------------------------------------------|
|---------------------------------------------------|
|--------5-----------5--------------5-----8---------|
|--------5----6------5--8----6------5--8--8--6---5--|
|--------3----6------3--8----6------3--8--6--6---5--|
|-------------4---------6----4---------6-----4---3--|

Gtr.2

|---------------------------------------------------------|
|-9-9-9--8~---9-9-9--8--6~---9-9-9--8--6--9---------------|
|--------------------------------------------5~--5h7-5-4~-|
|---------------------------------------------------------|
|---------------------------------------------------------|
|---------------------------------------------------------|

Gtr.1

|---------------------------------------------------|
|---------------------------------------------------|
|--------5-----------5--------------5-----8---------|
|--------5----6------5--8----6------5--8--8--6---5--|
|--------3----6------3--8----6------3--8--6--6---5--|
|-------------4---------6----4---------6-----4---3--|

Gtr.2

|-16-16-16--15~--16-16-16--15--13~--19-19-19-20--15--13--11~-13br-10------|
|--------------------------------------------------------------------11hb-|
|-------------------------------------------------------------------------|
|-------------------------------------------------------------------------|
|-------------------------------------------------------------------------|
|-------------------------------------------------------------------------|


Back to verse:

Gtr.1

|------7h10p7------7h10p7-----7h10p7------7h10p7-|
|----8-----------8----------8-----------8--------|
|--9-----------9----------9-----------9----------|
|------------------------------------------------|
|------------------------------------------------|
|------------------------------------------------|

|------7h10p7------7h10p7-----7--11-11-11-11-11-11-11-----|
|----8-----------8----------8----12-12-12-12-12-12-12-----|
|--9-----------9----------9------11-11-11-11-11-11-11-----|
|---------------------------------------------------------|
|---------------------------------------------------------|
|---------------------------------------------------------|

Prechorus:

Gtr.1

|-5--5--5-5--4--3--3--3-3--3--3--3--3-3-3-|
|-7--7--7-7--6--5--5--5-5--5--4--4--4-4-4-|
|-7--7--7-7--6--5--5--5-5--5--5--5--5-5-5-|
|-7--7--7-7--6--5--5--5-5--5--5--5--5-5-5-|
|-5--5--5-5--4--3--3--3-3--3--3--3--3-3-3-|
|-----------------------------------------|

|-3--3-3-3--3-3-3--3-3-3--3-3-|
|-3--3-3-3--3-3-3--3-3-3--3-3-|
|-4--4-4-4--4-4-4--4-4-4--4-4-|
|-5--5-5-5--5-5-5--5-5-5--5-5-|
|-5--5-5-5--5-5-5--5-5-5--5-5-|
|-3--3-3-3--3-3-3--3-3-3--3-3-|

Chorus:

Gtr.2

|----------------7---------------|
|----------------8---------------|
|---7-5---5-7-7--9-7-5---5-7-7---|
|-2-7-5-7-5-7-7--9-7-5-7-5-7-7---|
|-2-5-3-7-3-5-5--7-5-3-7-3-5-5---|
|-0-----5--------------5---------|

|----------------------------|
|----------------------------|
|----7--4--------7--4--------|
|-5--7--4--2--5--7--4--4--5--|
|-5--5--2--2--5--5--2--4--5--|
|-3--------0--3--------2--3--|

The end.I'm gonna put Hometown Gypsy and Brave From Afar
very soon and I hope you'll like it.

            
            
Suggest correction
Creating personal tab
Creating personal tab
You can edit any tab online and save it as your Personal.

You can edit, replace or remove any tab part or add personal notes – all changes will be seen only by you.

Personal tabs can be accessed anytime from any device, even offline.
Learn more »
Give kudos to tab author, rate the tab!
1 2 3 4 5
comments
print report bad tab
5 comments total. Showing first comments.
0 reply
Dimitris_RHCP 82 Jul 25, 2013 07:11 AM

Well done! :D

-1 reply
Dimitris_RHCP 82 Jul 25, 2013 08:57 AM

But I think that prechorus is:

|-5--5--5-5--4--3--3--3-3--3--3--3--3-3-3-|
|-7--7--7-7--4--5--5--5-5--5--3--3--3-3-3-|
|-7--7--7-7--5--5--5--5-5--5--4--4--4-4-4-|
|-7--7--7-7--6--5--5--5-5--5--5--5--5-5-5-|
|-5--5--5-5--6--3--3--3-3--3--3--5--5-5-5-|
|------------4-------------------3--3-3-3-|

|-3--3-3-3--3-3-3--3-3-3--3-3-|
|-3--3-3-3--3-3-3--3-3-3--3-3-|
|-4--4-4-4--4-4-4--4-4-4--4-4-|
|-5--5-5-5--5-5-5--5-5-5--5-5-|
|-5--5-5-5--5-5-5--5-5-5--5-5-|
|-3--3-3-3--3-3-3--3-3-3--3-3-|

-1 reply
nico_frusciante 72 Aug 04, 2013 07:37 PM

I think that verse is:

|--10-7-----10-7-----11-11--11-11--11--|
|-------8--------8---10-10--10-10--10--|
|---------9--------9-11-11--11-11--11--|
|--------------------------------------|
|--------------------------------------|
|--------------------------------------|


Great tab !

guest
You may want to rate the tab now too:
select rating
Wanna post a correction for this tab? Suggest correction