Oops, an error
Loading. Please wait.
We have an official I Could Die For You tab made by UG professional guitarists. Check out the tab »
×
78,769 views 105 this week
9 commentsread comments
1 2 3 4 5
x 16
add to favorites
×
Save as Personal and add changes to this tab that will be seen only by you. Learn more ›
×
You can save this tab as Personal to edit and correct it or add notes. All changes will be seen only by you. Learn more »
launch autoscroll
font size
0
reset
how to read this tab
guitar tuner
edit
Autoscroll
slow
fast
+/-
esc
set tempo
stop
"I Could Die For You


Tabbed by Ilias. Revised by Chris Valente
Any corrections are welcomed! Rythym Not Shown!


[Intro]

e|-0----0--4-0-0-------------------|
B|-2----2----2-2-------------------|
G|-2----2----2-2----------2-----2--|
D|-2----2----2-2--------2-----2----|
A|-0----0----0-0------0-----x------|
E|--------------------------4------|


[Verse]

 Something...    ...The cards...
 Dont want...    ...Somebody else...
e|---2------------7--------------|
B|---2------------5--------------|
G|---2------------4--------------|
D|---4------------6--------------|
A|---4------------4--------------|
E|---2---------------------------|


  This is...     ...and this...
  She smiles...  ...Do my time...
e|--------------------12--------|
B|---14---------------12--------|
G|---14---------------11--------|
D|---14---------------12--------|
A|---12-------------------------|
E|------------------------------|


[Chorus]

  ...I could die for you
e|---5---------------------9----|
B|---5--------9-------7----10---|
G|---6--------9-------7----11---|
D|---7--------9-------9----11---|
A|---7--------7-------9----9----|
E|---5----------------7---------|

  ...Oh this life I...Choose
e|---5------------------7-7--7-7--7-----------|
B|---5--------9---------7-10-7-10-7-----------|
G|---6--------9---------7-7--7-7--7---7h9p7---| Then back to intro!
D|---7--------9---------9-9--9-9--9---------9-|
A|---7--------7-------------------------------|
E|---5----------------------------------------|

     Fill 1:           Fill 2:
e|--------------    --9--7--5--4--|
B|--------------    --9--7--5--4--|
G|--7h9p7-------    --------------|
D|--------9-----    --------------|
A|--------------    --------------|
E|--------------    --------------|


[Bridge 1]

   You can see... ..Only...
e|----14-------------16--------|
B|----14-------------14--------|
G|----13-------------14--------|
D|----14-------------14--------|
A|-------------------12--------|
E|-----------------------------|

   Come along and go...  ...Along with me...
e|----9--12--9--12--9-------------------|
B|----9--9---9--9---9-------------------|
G|----9--9---9--9---9----------11-------|
D|----11-11--11-11--11---------11-------|
A|-----------------------------9--------|
E|-----------------------------10-------|
                         ^
           hit 14th fret high e 2nd time

twice then  back to chorus:


[Bridge 2]

  Come on then...                 ...How we are...
e|----7-7-x-xx-x------9-9-x-x---------9-9---12-12----|
B|----6-6-x-xx-x------7-7-x-x---------7-7---9--9-----|
G|----6-6-x-xx-x------7-7-x-x---------7-7---9--9-----|
D|---------------------------------------------------|
A|---------------------------------------------------|
E|---------------------------------------------------|



************************************

| x  Dead note
| h  Hammer-on
| p  Pull-off

************************************

            
            
Suggest correction
Creating personal tab
Creating personal tab
You can edit any tab online and save it as your Personal.

You can edit, replace or remove any tab part or add personal notes – all changes will be seen only by you.

Personal tabs can be accessed anytime from any device, even offline.
Learn more »
comments
print report bad tab
9 comments total. Showing first comments.
+1 reply
andrewbiles 4,775 May 29, 2004 08:00 PM

On the "she smiles while I do my time" bit, try this chord as the second one x,x,11,9,9,12
It seems to follow the pattern of the song a bit better where it's got the basis of one of the chords, in this case C#m, but with the added note on the 'e' string.

0 reply
andrewbiles 4,775 May 29, 2004 08:00 PM

Also in the verse, instead of the C#m7 being a route 5, change it to a route 6 with this shape 9,11,9,9,12,x
There's a few other bits I'd change as well, but I'm not really sure what to just yet, so if I work them out I'll come back and say.

-1 reply
andrewbiles 4,775 May 29, 2004 08:00 PM

Ok, that last correction was stupid of me, but it just sounds better in a route 6 position on my guitar.

guest
Wanna post a correction for this tab? Suggest correction