Oops, an error
Loading. Please wait.

I Could Have Lied Tab

version 1
56,847 views 120 this week
6 commentsread comments
1 2 3 4 5
accurate
x 21
add to favorites
launch autoscroll
font size
0
reset
how to read this tab
guitar tuner
Autoscroll
slow
fast
+/-
esc
set tempo
stop
Help us to improve Ultimate-Guitar.com Take our survey!
×
ok ive worked out the solo for this song it is:

ok i have some bends that look like this -9^^9- this is where you hit the string
and bend then hit the string again still in the bend and bend back down

^ bend      p pull off
/ slide     ^^ bend and bend down (hitting again when bent up aswell as before)
h hammer

e|----------------------------------------------------------|
B|----------------------------------------------------------|
G|------------------------7-9/11-11-11-11-11-9-11-11-9-11---|
D|----------7-9^^9----7h9-----------------------------------|
A|----5-7/9--------10---------------------------------------|
E|-/7-------------------------------------------------------|

e|------------------------------7---7-----7------7----------|
B|----------------------------7-7-7-7-7-7---7-10^--10-7-10--|
G|-12^^12-11-7--7-7-9-7-9p7-7-9^--9^--9^--------------------|
D|----------------------------------------------------------|
A|----------------------------------------------------------|
E|----------------------------------------------------------|

e|----------------------------------------------------------|
B|-7-7h8p7----7-----------------8p7-7h8p7----------7--------|
G|----------9----7^^7----------------------7-----7---7------|
D|---------------------9-7-9-99--------------9-9--------9-9-|
A|----------------------------------------------------------|
E|----------------------------------------------------------|

e|----------------------------10--12^--15^^15p14------------|
B|----------------------10/12--------------------15---------|
G|---------------7-9/11------------------------------14/7---|
D|-7-9--4-5-5/9---------------------------------------------|
A|----------------------------------------------------------|
E|----------------------------------------------------------|

e|----------------------------------------------------------|
B|----------7-----------------------------------------------|
G|-7-9-7-9--9^----------------------------------------------|
D|---------------7-7-7h9-5/4/5/4/2p0------------------------|
A|----------------------------------------------------------|
E|----------------------------------------------------------|

hopefully this is ok and u understand it
Suggest correction
comments
print report bad tab
6 comments total. Showing first comments.
-1 reply
rhcp_guitarist 238 wrote on April 17 2003, 12:00 am

pretty gud man....gud job:D

-1 reply
matan4u 10 wrote on June 17 2003, 12:00 am

gud=good?

-1 reply
Dave_M 40 wrote on March 28 2008, 10:15 am

yea lol i think so :P

guest
You may want to rate the tab now too:
select rating
Please do not post tabs as comments. Select "correction" instead!