Oops, an error
Loading. Please wait.

I Could Have Lied Tab

version 2
version 2
7,469 views 6 this week
no commentswrite comment
1 2 3 4 5
x 5
add to favorites
launch autoscroll
font size
0
reset
how to read this tab
guitar tuner
Autoscroll
slow
fast
+/-
esc
set tempo
stop
Help us to improve Ultimate-Guitar.com Take our survey!
×
This is an amazin song and this is the first tab ive done and it sounds pretty good 
its for rhythm guitar but hopefully trying to tab the solos 

song: i could have lied
artist: red hot chili peppers
album: blood sugar sex magik


[Intro]

e|----------------------------------------|
B|----------------------------------------|
G|----------------------------------------|  
D|-----0---4---0---4---0---4/7--5--4-0----|  
A|-0h2---2---2---2---2---2---0------------|
E|---------------------------------3---3--|(x4)

e|------------------------------------------|
B|---------------------2h3p2----------------|
G|------------------------------------------|
D|-----0---4---0---4---------/7--5--4--0----|
A|-0h2---2---2---2---2--------0-------------|
E|--------------------------------3------3--|

e|-----------------------------------------|
B|-----------------------------------------|
G|-----------------------------------------|
D|-----0---4---0---4---0---4/7--5--4--0----|
A|-0h2---2---2---2---2---2---0-------------|
E|---------------------------------3----3--|


[Chorus]

e|-2--2--2-2/5-5-5-5-5----0--0-----0--0----|
B|-3--3--3-3/7-7-7-7-7----3--3-----3--3----|
G|-3--3--3-3/7-7-7-7-7----2--2-----0--0----|
D|-3--3--3-3/7-7-7-7-7----2--2-----0--0----|
A|-2--2--2-2/5-5-5-5-5----0--0-----2--2----|
E|-2--2--2-2/5-5-5-5-5-------------3--3----|


[Verse]

e|-----------------------------------------|
B|---------------------2h3p2---------------|
G|-----------------------------------------|
D|-----0---4---0---4---------/7--5--4--0---|
A|-0h2---2---2---2---2--------0------------|
E|----------------------------------3----3-|

e|-----------------------------------------|
B|-----------------------------------------|
G|-----------------------------------------|
D|-----0---4---0---4---0---4/7--5--4--0----|
A|-0h2---2---2---2---2---2---0-------------|
E|---------------------------------3----3--|(x3)

e|-----------------------------------------|
B|------------------------------------0----|
G|-----------------------------------------|
D|-----0---4---0---4---0---4/7--5--4-------|
A|-0h2---2---2---2---2---2---0-------------|
E|---------------------------------3-------|

e|-----------------------------------------|
B|-----------------------------------------|
G|-----------------------------------------|
D|------0---4---0---4---0---4/7--5--4--0---|
A|-0h2----2---2---2---2---2---0------------|
E|----------------------------------3----3-|


[Chorus]

e|-2--2--2-2/5-5-5-5-5----0--0---0--0------|
B|-3--3--3-3/7-7-7-7-7----3--3---3--3------|
G|-3--3--3-3/7-7-7-7-7----2--2---0--0------|
D|-3--3--3-3/7-7-7-7-7----2--2---0--0------|
A|-2--2--2-2/5-5-5-5-5----0--0---2--2------|
E|-2--2--2-2/5-5-5-5-5-----------3--3------|


[Bridge]

e|------------------------------------------|
B|------------------------------------------|
G|------------------------------------------|
D|-----0---4---0---4---0---4/7--5--4--0-----|
A|-0h2---2---2---2---2---2---0--------------|
E|---------------------------------3----3-0-|


[Chorus]

e|-0--0--0-0--10-10-10-10-10--5-5-5-5-5--3--3-3-3-3--|
B|-0--0--0-0--12-12-12-12-12--7-7-7-7-7--5--5-5-5-5--|
G|-1--1--1-1--12-12-12-12-12--7-7-7-7-7--5--5-5-5-5--|
D|-2--2--2-2--12-12-12-12-12--7-7-7-7-7--5--5-5-5-5--|
A|-2--2--2-2--10-10-10-10-10--5-5-5-5-5--3--3-3-3-3--|
E|-0--0--0-0--10-10-10-10-10--5-5-5-5-5--3--3-3-3-3--|(x2)

played over solo
e|-2-2-2-2-2-2-2-2--0-0-0-0-0--3-3-3----------|
B|-2h3-3-3-3-3-3-3--2-2-2-2-2--3-3-3----------|
G|-4-4-4-4-4-4-4-4--2-2-2-2-2--0-0-0----------|
D|-4-4-4-4-4-4-4-4--2-2-2-2-2--0-0-0----------|
A|-2-2-2-2-2-2-2-2--0-0-0-0-0--2-2-2----------|
E|-2-2-2-2-2-2-2-2-------------3-3-3----------|(x4)

e|-----------------------------------------|
B|-----------------------------------------|
G|-----------------------------------------|
D|-----0---4---0---4---0---4/7--5--4--0----|
A|-0h2---2---2---2---2---2---0-------------|
E|---------------------------------3----3--|(x2)


[Verse]

e|------------------------------------------|
B|------------------------------------------|
G|------------------------------------------|
D|-----0---4---0---4---0---4/7--5--4--0-----|
A|-0h2---2---2---2---2---2---0--------------|
E|---------------------------------3-----3--|(x4)

played over solo and till end of song
e|-0--0--0-0--10-10-10-10-10--5-5-5-5-5--3--3-3-3-3--|
B|-0--0--0-0--12-12-12-12-12--7-7-7-7-7--5--5-5-5-5--|
G|-1--1--1-1--12-12-12-12-12--7-7-7-7-7--5--5-5-5-5--|
D|-2--2--2-2--12-12-12-12-12--7-7-7-7-7--5--5-5-5-5--|
A|-2--2--2-2--10-10-10-10-10--5-5-5-5-5--3--3-3-3-3--|
E|-0--0--0-0--10-10-10-10-10--5-5-5-5-5--3--3-3-3-3--|

that's all i'll try tabbing the solos and post them soon


************************************

| h  Hammer-on
| p  Pull-off
| /  Slide up

************************************
Suggest correction
comments
print report bad tab
guest
You may want to rate the tab now too:
select rating
Wanna post a correction for this tab? Suggest correction