Oops, an error
Loading. Please wait.

I Could Have Lied Bass Tab

version 3
version 3

Whole song

2,761 views 30 this week
3 commentsread comments
1 2 3 4 5
excellent!
x 4
add to favorites
launch autoscroll
font size
0
reset
guitar tuner
Tab Pro tools
  • play this tab
  • loop segment
  • change instrument
  • show fretboard
  • metronome
×
Best way to learn
"I Could Have Lied"
Autoscroll
slow
fast
+/-
esc
set tempo
stop
Contributor
Difficulty
novice
----------------------------------------------------------------------------
	         I could have lied - Red hot chili peppers
----------------------------------------------------------------------------

Tabbed By : Joel Keane (jk41)
e-mail:

Tuning:standard
verse                               last 1 to pre chorus
G|---------------------------------]----------------------------------------|
D|---------------------------------]----------------------------------------|
A|--.----.----.----.---------------]----------------------------------------|
E|--7-7--7-7--5-5--3-3---repeat----]---5----3-------------------------------|
pre chorus (sort of)
G|--------------------------------------------------------------------------|
D|-------.-.----------------------------------------------------------------|
A|--2----5-5-5----------------.----.----.----.------------------------------|
E|--------------5-5--3-3------7-7--7-7--5-5--3-3----------------------------|
chorus
G|--------------------------------------------------------------------------|
D|--------.--.------------------------.--.----------------------------------|
A|--7-7--10-10-10--5----3-3-----7-7--10-10-10--5-5--3-----------------------|
E|--------------------------------------------------------------------------|
solo- 4 different tails                  1         2            3      4
G|------------------------------------]---------]------------]-----]--------|
D|------------------------------------]---------]------------]-----]--------|
A|--7-7-7--7--5-7-5-7--7-5-7----7-----]---5h7-5-]----5h7p5---]-5-0-]--------|
E|----------------------------5---5-3-]5h7------]-5h7-----7-5]-----]---3----|
verse riff, chorus riff then
outro             repeat
G|-------------------------[--------|
D|--.-----.-----.----.-----[--------|
A|--7-7--10-10--5-5--3-3---[--/7----|
E|-------------------------[--------|


| /  slide up
| \  slide down
| h  hammer-on
| p  pull-off
| ~  vibrato
| +  harmonic
| x  Mute note
===============================================================================
comments
print report bad tab
3 comments total.
0 reply
jk41 wrote on March 6 2011, 06:02 pm

If this helped please rate

0 reply
LithiumIQ wrote on June 29 2014, 02:45 pm, edited at 02:45 pm

You got the solo right but i think you missed the string for the first part

0 reply
jk41 wrote on July 5 2014, 08:11 pm

its 100% right. its simple chord progression. one of the easiest bass songs ever

I want to post or [tab]
guest
You may want to rate the tab now too:
select rating
Please do not post tabs as comments. Select "correction" instead!