Oops, an error
Loading. Please wait.

I Could Have Lied Tab

version 4
version 4
41,353 views 9 this week
10 commentsread comments
1 2 3 4 5
excellent!
x 21
add to favorites
launch autoscroll
font size
0
reset
how to read this tab
guitar tuner
Autoscroll
slow
fast
+/-
esc
set tempo
stop
Help us to improve Ultimate-Guitar.com Take our survey!
×
Author
 -------------------------------------------------------------------------------
                             I could have lied - Red Hot Chili Peppers
-------------------------------------------------------------------------------
Tabbed by: Evan G
Email: egalinskyb182@aol.com
Tuning: E A D G B e

INTRO/ VERSE
                          |Play (6h7p6) on 5th time through| 
e|---------------------------------------------------------------------------|
B|---------------------------------------------------------------------------|
G|-------------------------6h7p6---------------------------------------------|
D|----0---4---0---4---0—----------4/---7--5--4--0----------------------------|
A|-0h2--2---2---2---2---2--------------0-------------------------------------|
E|-------------------------------------------3-----3-------------------------|

1st Solo

e|---------------------------------------------------------------------------|
B|---------------------------------------------------------------------------|
G|-6h7p6-9b10\7--------------------------------------------------------------|
D|---------------------------------------------------------------------------|
A|---------------------------------------------------------------------------|
E|---------------------------------------------------------------------------|

Chorus 1                         Chorus 2

e|---------------------0----0-0-|-----------10-10-10-10-10-10\-5-5-5-5-3-3-3---|
B|-4-4-x-7-7-7-7-7-7---0-0--0-0-|-8-8-8-8-x-12-12-12-12-12-12\-7-7-7-7-5-5-5---|
G|-4-4-x-7-7-7-7-7-7---2-2--4-4-|-9-9-9-9-x-12-12-12-12-12-12\-7-7-7-7-5-5-5---|
D|-4-4-x-7-7-7-7-7-7---2-2--5-5-|-9-9-9-9-x-12-12-12-12-12-12\-7-7-7-7-5-5-5---|
A|-2-2-x-5-5-5-5-5-5---0--------|-7-7-7-7-x-10-10-10-10-10-10\-----------------|
E|------------------------------|----------------------------------------------|
    



Solo 2

e|---------------------------------------------------------------------------|
B|-------------------------------7-7-7-7-7---7-7---7-8b10-8-7----------------|
G|----------------------------6/7----------9-----9------------7-7-7-9-7------|
D|----------7-9b11br9-------9------------------------------------------------|
A|----5-7/9-----------10-10--------------------------------------------------|
E|-/7------------------------------------------------------------------------|

e|-----------------------------7---------7-----------------------------------|
B|--------------7------7-----7---7-10b11---10-7-10-10p7-7h10p7---7-----------|
G|-9p7-x-7-9b11---9b11---9b11----------------------------------9---7b9br7----|
D|---------------------------------------------------------------------------|
A|---------------------------------------------------------------------------|
E|---------------------------------------------------------------------------|

e|---------------------------------------------------------------------------|
B|-----------8-7-7h8p7---------7---------------------------------------------|
G|---------------------7-----7---7-------------------------------------14/16-|
D|-9-7-9-9-9-------------9-9-------9-7h9-9-7-9----------------12-14/16-------|
A|---------------------------------------------7/9-9/10-10/14----------------|
E|---------------------------------------------------------------------------|

e|------------15b17br15-14---------------------------------------------------|
B|-15-17b19-x--------------15------------------7-----------------------------|
G|----------------------------14\9\7-7-7-9-7-9-9b11br9-----------------------|
D|----------------------------------------------------9p7-7-7/9\5-4/5\4------|
A|---------------------------------------------------------------------------|
E|---------------------------------------------------------------------------|

Solo 3

e|---------------------------------------------------------------------------|
B|-------12----12----------12-15----15-12------------------------------------|
G|-2p0---14b16----14-14b16----14b16-------14-14-12-14-12-14b16-14b17---------|
D|-----2---------------------------------------------------------------------|
A|---------------------------------------------------------------------------|
E|---------------------------------------------------------------------------|


e|---------------------------------------------------------------------------|
B|---------------------------------------------------------------------------|
G|-14-12-12h14p12-14-12-------12-----------------------12-14b16-12-14b16-----|
D|----------------------14-14---14-12-14-12-14-12h14-x-----------------------|
A|---------------------------------------------------------------------------|
E|---------------------------------------------------------------------------|

e|---------------------------------------------------------------------------|
B|-------------------15-12-15-12---12----------------------------------------|
G|-14p12----12-14-12-----------------14-12-14b16-14b16br14-14-12-12b14br12---|
D|-------14------------------------------------------------------------------|
A|---------------------------------------------------------------------------|
E|---------------------------------------------------------------------------|


e|------------------------------------------------------------------------7--|
B|------------------------------------------------------------------------8--|
G|-11-12-11-11b12-11\4-7-4-4-----0-2-2b4br2-0-2p0-2p0---------------------9--|
D|-----------------------------2------3---------------2b4br2-2-2/14-14-14-9--|
A|------------------------------------------------------------------------7--|
E|---------------------------------------------------------------------------|


| / slide up
| \ slide down
| h hammer-on
| p pull-off
| x Mute note
===================================================================
Suggest correction
What's this?
You can suggest a correction to this tab. Community and Mods will review your correction and vote to approve or reject it.
comments
print report bad tab
10 comments total. Showing first comments.
0 reply
prs82 130 wrote on October 2 2005, 11:45 am

Great Job!

-1 reply
Has Many Issues 374 wrote on November 3 2005, 01:27 pm

Missing a lot of the first solo..and the intro is a little bit off, but not too bad.

0 reply
Trickstar 142 wrote on August 30 2006, 08:29 am

Great work on the chorus...sounds good and easy to play =)

guest
You may want to rate the tab now too:
select rating
Please do not post tabs as comments. Select "correction" instead!