Oops, an error
Loading. Please wait.

I Could Have Lied Tab

version 5
version 5
3,098 views 3 this week
no commentswrite comment
1 2 3 4 5
accurate
x 3
add to favorites
launch autoscroll
font size
0
reset
how to read this tab
guitar tuner
Autoscroll
slow
fast
+/-
esc
set tempo
stop
Help us to improve Ultimate-Guitar.com Take our survey!
×
Author
Difficulty
intermediate
-------------------------------------------------------------------------------
                 I Could Have Lied - Red Hot Chili Peppers
-------------------------------------------------------------------------------
Tabbed by: Piper182
Email:

Tuning: Normal


[Intro]

e|-------------------------------------|
B|-------------------------------------|
G|-------------------------------------|
D|-----0---4---0---4---0---4/7-5-4-----|
A|-0h2---2---2---2---2---2---0-----5---|
E|-----------------------------------3-|

e|-------------------------------------|
B|-------------------------------------|
G|-------------------------------------|
D|-----0---4---0---4---0---4/7-5-4-----|
A|-0h2---2---2---2---2---2---0-----5---|
E|-----------------------------------3-|

e|-------------------------------------|
B|-------------------------------------|
G|-------------------------------------|
D|-----0---4---0---4---0---4/7-5-4-----|
A|-0h2---2---2---2---2---2---0-----5---|
E|-----------------------------------3-|

e|-------------------------------------|
B|-------------------------------------|
G|-------------------------------------|
D|-----0---4---0---4---0---4/7-5-4-----|
A|-0h2---2---2---2---2---2---0-----5---|
E|-----------------------------------3-|

e|--------------------------------------|
B|---------------------2h3p2------------|
G|--------------------------------------|
D|-----0---4---0---4---------4/7-5-4----|
A|-0h2---2---2---2---2-------0-0-----5--|
E|-------------------------------------3|

e|-------------------------------------|
B|-------------------------------------|
G|-------------------------------------|
D|-----0---4---0---4---0---4/7-5-4-----|
A|-0h2---2---2---2---2---2---0-----5---|
E|-----------------------------------3-|


[Chorus 1]

e|-------------5-55-3-----------|
B|-------------5-55-3-----------|
G|-4-4-4444-77-6-66-4-----------|
D|-4-4-4444-77-7-77-5-----------|
A|-2-2-2222-55-7-77-5-----------|
E|-------------5-55-3-----------|


[Verse 1]

e|--------------------------------------|
B|---------------------2h3p2------------|
G|--------------------------------------|
D|-----0---4---0---4---------4/7-5-4----|
A|-0h2---2---2---2---2-------0-0-----5--|
E|-------------------------------------3|

e|-------------------------------------|
B|-------------------------------------|
G|-------------------------------------|
D|-----0---4---0---4---0---4/7-5-4-----|
A|-0h2---2---2---2---2---2---0-----5---|
E|-----------------------------------3-|

e|-------------------------------------|
B|-------------------------------------|
G|-------------------------------------|
D|-----0---4---0---4---0---4/7-5-4-----|
A|-0h2---2---2---2---2---2---0-----5---|
E|-----------------------------------3-|

e|-------------------------------------|
B|-------------------------------------|
G|-------------------------------------|
D|-----0---4---0---4---0---4/7-5-4-----|
A|-0h2---2---2---2---2---2---0-----5---|
E|-----------------------------------3-|

e|-------------------------------------|
B|-------------------------------------|
G|-------------------------------------|
D|-----0---4---0---4---0---4/7-5-4-----|
A|-0h2---2---2---2---2---2---0-----5---|
E|-----------------------------------3-|

e|-------------------------------------|
B|-------------------------------------|
G|-------------------------------------|
D|-----0---4---0---4---0---4/7-5-4-----|
A|-0h2---2---2---2---2---2---0-----5---|
E|-----------------------------------3-|


[Chorus 2]

e|-------------5-55-3-----------|
B|-------------5-55-3-----------|
G|-4-4-4444-77-6-66-4-----------|
D|-4-4-4444-77-7-77-5-----------|
A|-2-2-2222-55-7-77-5-----------|
E|-------------5-55-3-----------|


[Bridge 1]

e|-------------------------------------|
B|-------------------------------------|
G|-------------------------------------|
D|-----0---4---0---4---0---4/7-5-4-----|
A|-0h2---2---2---2---2---2---0-----5---|
E|-----------------------------------3-|


[Chorus 3]

e|-------------5-55-3-3-3---------|
B|-------------5-55-3-3-3---------|
G|-4-4-4444-77-6-66-4-4-4---------|
D|-4-4-4444-77-7-77-5-5-5---------|
A|-2-2-2222-55-7-77-5-5-5---------|
E|-------------5-55-3-3-3---------|

e|-------------5-55-3-3-3---------------|
B|-------------5-55-3-3-3---------------|
G|-4-4-4444-77-6-66-4-4-4---------------|
D|-4-4-4444-77-7-77-5-5-5---------|<----|
A|-2-2-2222-55-7-77-5-5-5---------|  ---|
E|-------------5-55-3-3-3---------|  ---|


[Solo]

Guitar 1. Guitar 2 just repeat | x 4. After the four repititions of ONE chorus 
begin intro riff and complete x 2. The solo and intro riff should end at the same time and 
should begin Verse 2.
e|----------------------------------------------------------------------------|
B|-----------------------------------7-7-7-7-7---7-7---7-10-8-7---------------|
G|-------------------------------6h7-----------9-----9----------7-7-7-9-7-9-7-|
D|-----------7-9-11-11p9-------9----------------------------------------------|
A|-----5-7-9-------------10-10------------------------------------------------|
E|-1/7------------------------------------------------------------------------|

e|-----------------------------------7------7----------------------------|
B|---------------------7-----7-----7---7-10---7-7h10p7-------------7h8p7-|
G|-7-7-7-9-7-9-7-7-9/11--9/11--9/11--------------------9-7---------------|
D|---------------------------------------------------------9-7-7h9-------|
A|-----------------------------------------------------------------------|
E|-----------------------------------------------------------------------|

e|-----------------------------------------10-12-12/17-----17-15-14----------|
B|-----------------------------------10-12--------------------------15-------|
G|-9-7------------------------7-9-11-----------------------------------12/7--|
D|-----9-7-7h9-7h9-7h9------9------------------------------------------------|
A|---------------------9/10--------------------------------------------------|
E|---------------------------------------------------------------------------|

e|---------------------------------|
B|---------------------------------|
G|-7-9-7-9-9/11--------------------|
D|--------------7-7h9p7-4-4h5p4-0--|
A|---------------------------------|
E|---------------------------------|


[Verse 2]

e|-------------------------------------|
B|-------------------------------------|
G|-------------------------------------|
D|-----0---4---0---4---0---4/7-5-4-----|
A|-0h2---2---2---2---2---2---0-----5---|
E|-----------------------------------3-|

e|-------------------------------------|
B|-------------------------------------|
G|-------------------------------------|
D|-----0---4---0---4---0---4/7-5-4-----|
A|-0h2---2---2---2---2---2---0-----5---|
E|-----------------------------------3-|

e|--------------------------------------|
B|---------------------2h3p2------------|
G|--------------------------------------|
D|-----0---4---0---4---------4/7-5-4----|
A|-0h2---2---2---2---2-------0-0-----5--|
E|-------------------------------------3|


e|-------------------------------------|
B|-------------------------------------|
G|-------------------------------------|
D|-----0---4---0---4---0---4/7-5-4-----|
A|-0h2---2---2---2---2---2---0-----5---|
E|-----------------------------------3-|


[Chorus 4]

e|-------------5-55-3-3-3---------|
B|-------------5-55-3-3-3---------|
G|-4-4-4444-77-6-66-4-4-4---------|
D|-4-4-4444-77-7-77-5-5-5---------|
A|-2-2-2222-55-7-77-5-5-5---------|
E|-------------5-55-3-3-3---------|


e|-------------5-55-3-3-3---------|
B|-------------5-55-3-3-3---------|
G|-4-4-4444-77-6-66-4-4-4---------|
D|-4-4-4444-77-7-77-5-5-5---------|
A|-2-2-2222-55-7-77-5-5-5---------|
E|-------------5-55-3-3-3---------|


e|-------------5-55-3-3-3---------|
B|-------------5-55-3-3-3---------|
G|-4-4-4444-77-6-66-4-4-4---------|
D|-4-4-4444-77-7-77-5-5-5---------|
A|-2-2-2222-55-7-77-5-5-5---------|
E|-------------5-55-3-3-3---------|


e|-------------5-55-3-3-3---------|
B|-------------5-55-3-3-3---------|
G|-4-4-4444-77-6-66-4-4-4---------|
D|-4-4-4444-77-7-77-5-5-5---------|
A|-2-2-2222-55-7-77-5-5-5---------|
E|-------------5-55-3-3-3---------|


************************************

| /  slide up
| \  slide down
| h  hammer-on
| p  pull-off
| ~  vibrato
| +  harmonic
| x  Mute note

************************************
Suggest correction
Give kudos to tab author, rate the tab!
1 2 3 4 5
comments
print report bad tab
guest
You may want to rate the tab now too:
select rating
Wanna post a correction for this tab? Suggest correction