Oops, an error
Loading. Please wait.

I Feel Love Live Bass Tab

2,429 views 18 this week
3 commentsread comments
1 2 3 4 5
excellent!
x 4
add to favorites
launch autoscroll
font size
0
reset
guitar tuner
Tab Pro tools
  • play this tab
  • loop segment
  • change instrument
  • show fretboard
  • metronome
Autoscroll
slow
fast
+/-
esc
set tempo
stop
Contributor
Difficulty
advanced
Red Hot Chili Peppers
I Feel Love Live 
Donna Summer Cover	

G|---55--33--55--33-|
D|-----55------55---|
A|-33------33-------|
E|------------------|


G|---88--66--88--66-|
D|-----88------88---|
A|-66------66-------|
E|------------------|


G|---1010----88--1010----88-|
D|-------1010--------1010---|
A|-88----------88-----------|
E|--------------------------|


G|-----1212----1010----1212---1010-|
D|---------1212-----------1212-----|
A|-1010------------1010------------|
E|---------------------------------|

That is all you need to know to play this song
And good luck
comments
print report bad tab
3 comments total.
0 reply
jimbo_226 wrote on October 9 2009, 10:43 am

i cant believe this is more doable than right on time...:S

0 reply
Jordanelpaco wrote on June 10 2010, 09:09 pm

its weird how easy it looks but god its so fast

0 reply
Filipus wrote on January 8 2012, 05:51 pm

Perfect tab.
Super hard to play it on time.

I want to post or [tab]
guest
You may want to rate the tab now too:
select rating
Please do not post tabs as comments. Select "correction" instead!