Oops, an error
Loading. Please wait.

I Found Out Bass Tab

266 views 1 this week
no commentswrite comment
1 2 3 4 5
please rate
add to favorites
launch autoscroll
font size
0
reset
guitar tuner
Tab Pro tools
  • play this tab
  • loop segment
  • change instrument
  • show fretboard
  • metronome
×
Best way to learn
"I Found Out"
Autoscroll
slow
fast
+/-
esc
set tempo
stop
Contributor
Difficulty
intermediate
-------------------------------------------------------------------------------
                     I Found Out - Red Hot Chili Peppers
-------------------------------------------------------------------------------

Tabbed by: TBone142
e-mail: tbone142@freemail.hu

Tuning: standard EADG

During the intro (1st verse) there's no bass.

Chorus:
G|---------------------------------------------------------------------------|
D|------------------------------575\-----------------------------------------|
A|----------------------------7----------------------------------------------|
E|3-3-3-3-3-3-3-3/5-5-5-5-5-5--------3-3-3-3-3-3-3-3\5-5-5-5-5-5-5-5---------|

Verse 2:
G|--------------------------------------------------------------5------------|
D|-----------------------------------------------2-2-5-7-----5----7----------|
A|--3-3-------3------5h7p5-3------------3------3----------7------------------|
E|5-----0--3----5------------5----0--3----5----------------------------------|

G|7/9\7/10\7/11\7/12--|
D|--------------------|
A|--------------------|
E|--------------------|

Bridge:
G|--------------------|
D|7\----------------7-|
A|--------------------|
E|--------------------|

Chorus:
G|---------------------------------------------------------------------------|
D|---------------------------------------------------------------------------|
A|---------------------------------------------------------------------------|
E|3-------------3/5-5-5-5-5-5-5-5------3---------------5-5-5-5-5-5-5-5-------|

Verse 3:
G|-------------------------------------5------------------------------------5|
D|---------------------------------------7--------------------------------5--|
A|-----------3------------3------------------5/7-5---------------3-----------|
E|5----0--3----5----0--3----5----0--3--------------6--5----0--3----5----0----|

Bridge:
G|--------------------|
D|7\------------5-3--5|
A|--------------------|
E|--------------------|

Chorus:
G|---------------------------------------------------------------------------|
D|---------------------------------------------------------------------------|
A|---------------------------------------------------------------------------|
E|3---------------5-5-5-5-5-5-5-5------3-------------4-5-5-5-5-5-5-5-5-------|

Solo:
G|-----------5-----------------------------------7/9-------------------------|
D|7-------5----7-------------------------------7-----9-----------------------|
A|-----7----------------3------------3----7/10-------------------------------|
E|----------------0--3----5----0--3----5-------------------------------------|

G|---------------------------------------------------------------------------|
D|---------------------------------------------------------------------------|
A|-----------3------------3------------3-----5/7-5---5/7-5-------------------|
E|5----0--3----5----0--3----5----0--3----5-----------------------------------|


G|------------------5--------------------------------------------------------|
D|---------------------5-------------------------5-5-5-----------------------|
A|-----------3------------5------------3-----5/7-----------------------------|
E|5----0--3----5------------5----0--3----5-----------------------------------|

Verse 4:
G|---------------------------------------------------------------------------|
D|-------------------------------2--5--------------5------------------5/7-7-7|
A|-----------3------------3------------3-----5--7---------------3------------|
E|-----0--3----5----0--3----5------------5-----------5----0--3----5----------|

Bridge:
G|--------------------|
D|7\------------------|
A|--------------------|
E|--------------------|

Chorus:
G|---------------------------------------------------------------------------|
D|---------------------------------------------------------------------------|
A|---------------------------------------------------------------------------|
E|3---------------5-5-5-5-5-5-5-5------3-------------4-5-5-5-5-5-5-5-5-------|

Verse 5:
G|-------------------------------------------7/9\7--7\5----------5-----------|
D|------------------------------------------------------7-----5----7------5--|
A|-----------3------------5/7------------3-----------------7-----------7----3|
E|5----0--3----5----0--3------6----0--3----5---------------------------------|


Bridge:
G|-------------------------|
D|----------------5/7-7-7--|
A|-----------3-----------53|
E|5----0--3----5-----------|

Chorus:
G|---------------------------------------------------------------------------|
D|---------------------------------------------------------------------------|
A|---------------------------------------------------------------------------|
E|3-3-3-3-3-3-3-4-5-5-5-5-5-5-5-5\3-3-3-3-3-3-3-3/5--------------------------|

Outro:
G|------------------7-7-7-7-7-7/14-\13\12\10---------------------------------|
D|----------------------------------------------7----------------------------|
A|---------------------------------------------------------------------------|
E|3-3-3-3-3-3-3-3/5-----------------------------5----------------------------|

===============================================================================
Notes: 

This song was originally made by John Lennon in 1970, Red Hot Chili Peppers
made a cover of it for the tribute album Working Class Hero. This tab is made
for the RHCP cover version.

If You have problems with this tab, write me a mail what's wrong with it
instead of giving it a bad rating! It'd better for everyone! Thx!


| /  slide up
| \  slide down
| h  hammer-on
| p  pull-off
| ~  vibrato
| +  harmonic
| x  Mute note
===============================================================================
comments
We did not receive enough feedback on this tab! Please rate:
print report bad tab
1 2 3 4 5
I want to post or [tab]
guest
You may want to rate the tab now too:
select rating
Please do not post tabs as comments. Select "correction" instead!