Oops, an error
Loading. Please wait.

I Found Out Tab

1,578 views 3 this week
no commentswrite comment
1 2 3 4 5
excellent!
x 4
add to favorites
launch autoscroll
font size
0
reset
how to read this tab
guitar tuner
Tab Pro tools
  • play this tab
  • loop segment
  • change instrument
  • show fretboard
  • metronome
×
Best way to learn
"I Found Out"
Autoscroll
slow
fast
+/-
esc
set tempo
stop
Contributor
Artist    : Red Hot Chili Peppers
Song      : I Found Out
Tabbed by : el_paso

With Wah throughout

   I  told you before         stay away from my door
e|--------------------x-x-x-x-------------------------x-x-x-x-|
b|--------------------x-x-x-x-------------------------x-x-x-x-|
g|--------------5-----x-x-x-x----------------5--------x-x-x-x-|
d|------5---7------7--x-x-x-x-------5----7--------7---x-x-x-x-|
a|-/7-----------------x-x-x-x--/7---------------------x-x-x-x-|
e|--------------------x-x-x-x-------------------------x-x-x-x-|

  Don't gimme that      brother brother brother brother
e|---------------------------------------------------------|
b|---------------------------------------------------------|
g|-----------------------5-------5-------5-----------------|
d|--------5----7-------------7-------7-------7---5---7\----|
a|--/7-----------------------------------------------------|
e|---------------------------------------------------------|

   The freaks on the phone        Won't leave me alone
e|------------------------x-x-x-x------------------------x-x-x-x-|
b|------------------------x-x-x-x------------------------x-x-x-x-|
g|----------------5-------x-x-x-x-----------------5------x-x-x-x-|
d|-------5----7--------7--x-x-x-x---------5---7------7---x-x-x-x-|
a|-/7---------------------x-x-x-x--/7--------------------x-x-x-x-|
e|------------------------x-x-x-x------------------------x-x-x-x-|

  Don't gimme that      brother brother brother brother
e|---------------------------------------------------------|
b|---------------------------------------------------------|
g|-----------------------5-------5-------5-----------------|
d|--------5----7-------------7-------7-------7---5---7\----|
a|--/7-----------------------------------------------------|
e|---------------------------------------------------------|


    I,       I found out!
e|--------------------------------|
b|--------------------------5-----|
g|--------------------------5-----|
d|--5-----------------7-----------|
a|--5-----------------7-----------|
e|--3-----------------5-----------|

    I,       I found out!
e|--------------------------------|
b|--------------------------------|
g|--------------------------------|
d|--5-----------------7-----------|
a|--5-----------------7-----------|
e|--3-----------------5-----------|


   Now that i showed you     what i been through
e|----------------------------------------------x-x-----|
b|------------------------5---------------------x-x-5---|
g|--------------5---------5---------------------x-x-5---|
d|--------------------7-------------------------x-x-----|
a|----------------------------------------------x-x-----|
e|----------------------------------------------x-x-----|

   Don't take nobody's word   what you can do
e|------------------------------------------------------|
b|--------------------------5------------------------7--|
g|--------------------------5---------------------------|
d|-----------------------------------------------5/7----|
a|------------------------------------------------------|
e|------------------------------------------------------|

   There ain't no jesus    gonna come from the sky
e|------------------------------------------------------|
b|-----------------------5---------------------------5--|
g|-----------------------5---------------------------5--|
d|------------------------------------------------------|
a|------------------------------------------------------|
e|------------------------------------------------------|

   Now that i found out   i know i can cry
e|---------------------------------------3-(depress tremolo)-|
b|---------------------------------------5-------------------|
g|-----------------------------------------------------------|
d|-----------------------------------------------------------|
a|-----------------------------------------------------------|
e|-----------------------------------------------------------|


    I,       I found out!
e|-----------------------------3--|
b|-----------------------------5--|
g|--------------------------------|
d|--5-----------------7-----------|
a|--5-----------------7-----------|
e|--3-----------------5-----------|

    I,       I found out!
e|--------------------------------|
b|--------------------------------|
g|--------------------------------|
d|--5-----------------7-----------|
a|--5-----------------7-----------|
e|--3-----------------5-----------|


   Some of you sitting there  with your cock in your hand
e|----------------------------------------------x-x-----|
b|------------------------5---------------------x-x-5---|
g|--------------5---------5---------------------x-x-5---|
d|--------------------7-------------------------x-x-----|
a|----------------------------------------------x-x-----|
e|----------------------------------------------x-x-----|

    Don't get you nowhere      don't make you a man
e|-------------------------------------------------------|
b|--------------------------5-----------------------8-10-|
g|--------------------------5-------------------7/9------|
d|-------------------------------------------------------|
a|-------------------------------------------------------|
e|-------------------------------------------------------|

     I heard something       Bout my ma and my pa
e|------------------------------------------------------|
b|-----------------------5---------------------------5--|
g|-----------------------5-------------------5-------5--|
d|----------------------------------------------7-------|
a|------------------------------------------------------|
e|------------------------------------------------------|

   They didn't want me so they made me a star
e|---------------------------------------3-(depress tremolo)-|
b|---------------------------------------5-------------------|
g|-----------------------------------------------------------|
d|-----------------------------------------------------------|
a|-----------------------------------------------------------|
e|-----------------------------------------------------------|


    I,       I found out!
e|--------------------------------|
b|-----------------------------5--|
g|-----------------------------5--|
d|--5-----------------7-----------|
a|--5-----------------7-----------|
e|--3-----------------5-----------|

    I,       I found out!
e|--------------------------------|
b|--------------------------------|
g|--------------------------------|
d|--5-------------6---7-----------|
a|--5-------------6---7-----------|
e|--3-------------4---5-----------|


SOLO

e|-------------------------------------------------------|
b|--------------------5-------------------7--------------|
g|--------------------5-----5-------------7--------------|
d|-------------------------------7-----------------------|
a|----------3--------------------------------------------|
e|--/5--5-------5------------------------------8---5-----|

e|-------------------------------------------------------|
b|-5-----------------------------------------------5---/-|
g|-5-----7p5---------------------------------------5---/-|
d|------------5-----5p7----------------------------------|
a|-------------------------------------3-----------------|
e|-----------------------8------------------5------------|

e|-------------------------------------------------------|
b|----7-----------------8---8h10-------------------------|
g|----7----/9-------------9------------------------------|
d|---------------------------------------10--9~~~~-------|
a|-------------------------------------------------------|
e|-------------------------------------------------------|

e|-------------------------------------------------------|
b|-------------------------------------------------------|
g|-------------------------------------------------------|
d|---9p10------------------------------------------------|
a|--------10------10-10-10/12---12-12-12-----------------|
e|-------------------------------------------------------|

e|-------------------------------------------------------|
b|-------------------------------------------------------|
g|-------------------------------------------------------|
d|-5-5-5-5h7---------------------------------------------|
a|------------3-5-5br--3~~~~-----------------------------|
e|------------------------------3h5~~~~~~----------------|


       Old Hare Krishna      got nothing on you
e|-----------------------------------------------x-----|
b|------------------------5----------------------x-7---|
g|--------------5---------5----------------------x-7---|
d|--------------------7--------------------------x-----|
a|-----------------------------------------------x-----|
e|-----------------------------------------------x-----|

   Just keep you crazy        with nothing to do
e|------------------------------------------------8-----|
b|------------------------5-----------------------------|
g|------------------------5--------------------------5~-|
d|------------------------------------------------------|
a|------------------------------------------------------|
e|------------------------------------------------------|

   Keep you occupied        with pie in the sky
e|------------------------------------------------------|
b|-----------------------5------------------------------|
g|-----------------------5------------------------------|
d|------------------------------------------------------|
a|------------------------------------------------------|
e|---------------------------------------8---5----------|

  There ain't no guru who can see through your eyes
e|----12~~~~~~~~~~~~~~~~~~~~~~15------------------------|
b|----15b~~~~~~~~~~~~~~~~~~~~~----15b~r~~~13~~~~~~~-----|
g|------------------------------------------------------|
d|------------------------------------------------------|
a|------------------------------------------------------|
e|------------------------------------------------------|


    I,       I found out!
e|--------------------------5-----|
b|-----------------------------5--|
g|--------------------------------|
d|--5-----------------7-----------|
a|--5-----------------7-----------|
e|--3-----------------5-----------|

    I,       I found out!
e|--------------------------------|
b|--------------------------------|
g|--------------------------------|
d|--5------------6----7-----------|
a|--5------------6----7-----------|
e|--3------------4----5-----------|

 I've seen through junkies   I've been through it all
e|--------------------------------------------------x---|
b|------------------------5-------------------------x-7-|
g|--------------5---------5-------------------------x-7-|
d|--------------------7-----------------------------x---|
a|--------------------------------------------------x---|
e|--------------------------------------------------x---|

     I seen religion          from jesus to paul
e|------------------------------------------------12----|
b|------------------------------------------------15b~~-|
g|--------------------------------------------|
d|------------------------------------------------------|
a|------------------------------------------------------|
e|------------------------------------------------------|

   Don't let them fool you    with dope and cocaine
e|------------------------------------------------------|
b|--------------------------5------------------------7--|
g|--------------------------5------------------------7--|
d|------------------------------------------------------|
a|------------------------------------------------------|
e|------------------------------------------------------|

   No one can harm you, feel your own pain
e|------------------------------------------------------|
b|------------------------------------------------------|
g|-----7b~~~~~~~~~~~~~~~--7b~~~~~~~~~r~~~~--------------|
d|------------------------------------------------------|
a|------------------------------------------------------|
e|------------------------------------------------------|

    I,       I found out!
e|-------------------------------------------|
b|-------------------------------------------|
g|-------------------------------------------|
d|--5-------------6---7----------------------|
a|--5-------------6---7-----0h2-0h2-2h3-2h3--|
e|--3-------------4---5----------------------|

    I,       I found out!
e|--------------------------------|
b|--------------------------------|
g|--------------------------------|
d|--5-----------------7-----------|
a|--5-----------------7-----------|
e|--3-----------------5-----------|

 I,       I found out!
e|--------------------------------|
b|--------------------------------|
g|--------------------------------|
d|--------------------------------|
a|--------------------------------|
e|--------------------------------|


Enjoy!
comments
print report bad tab
I want to post or [tab]
guest
You may want to rate the tab now too:
select rating
Please do not post tabs as comments. Select "correction" instead!